Band - ASH
Song - JACK NAMES THE PLANETS
Tabbed by - STEVE Q (punkguitarist01)
Good Song, this is the way I play it. Please give it a rating 

X - Scratch
b - Bend

Intro
E----------------------------
B----------------------------
G-9-9-----------9-9----------    x5
D-9-9--999-9-9--9-9--777-7-7-
A-7-7--999-9-9--7-7--777-7-7-
E------777-7-7-------555-5-5-

End of intro 

E----------------------------
B----------------------------
G-9-9-----------9-9----------    x1
D-9-9--999-9-9--9-9-7XXXX----
A-7-7--999-9-9--7-7-7XXXX----
E------777-7-7------5XXXX----

Verse

E---------
B---------
G---9-9---     x3
D---9-9---
A---7-7—--
E---------

Pre - bridge

E----------------
B-----9----------
G-------9--------   x1
D---------9------
A----------------
E----------------

Bridge

E---------------------------
B---------------------------
G-9-9----------9-9----------      x3
D-9-9-9-9-9----9-9--7-7-7---
A-7-7-9-9-9----7-7--7-7-7---
E-----7-7-7---------5-5-5---

E---------------------------
B---------------------------
G-9-9----------9-9----------      x1
D-9-9-9-9-9----9-9—7XXXX----
A-7-7-9-9-9----7-7-7XXXX----
E-----7-7-7--------5XXXX----

Chorus

E-------------------------
B-------------------------
G----6--6-6-6----8--8-8-8-
D-6--6--6-6-6-8--8--8-8-8-     x3
A-6--4--4-4-4-8--6--6-6-6-
E-4-----------6-----------

E------------------------
B------------------------
G-9----11----------------
D-9-9--11-11—XXXX--------      x1
A-7-9---9-11—XXXX--------
E---7------9—XXXX--------

Verse 
Pre - Bridge
Bridge
Chorus

Solo

E----------------------------------------------
B-1/9-9-9---------------------9-9----------10--
G--------11-----9--------9-------11------9-----
D----------11-11--11-9-7--7-6------11-11-------
A----------------------------------------------
E----------------------------------------------

E-------------------------------------------
B-9-9---------------------------------------
G----11-----9-------9-----7-----------------
D------11-11--11-9-7-7-6-7-7-6--------------
A-----------------------------7-5-----------
E--------------------------------7-5-3b-0---

Chorus
Verse
Pre - Bridge
Bridge
Chorus
         
Outro:   E------------
         B------------
         G-9----11----   X4 (play last chord again to end and let ring)
         D-9-9--11-11—
         A-7-9---9-11—
         E---7------9—


Текст, аккорды и табулатура для песни "Jack Names The Planets", исполняет "Ash".
Используемые в песне аккорды можно найти в разделе Как брать аккорды. Аккорды для шестиструнной гитары. Другие песни можно найти на нашем сайте, воспользовавшись алфавитным указателем вверху страницы.


 
Ошибка в тексте? Выделите ошибку и нажмите Ctrl+Enter