Вступление:Cm Cm\G#
           Cm Fm7 G# Gm 

how can i bear this any longer

arms stretched out only to hold separation

take me away

im dying inside, emptied before you
take me into your arms
i will fight until the day when i will see
sight given to these blind eyes
when will i be taken from this life
take what is yours
you deserve more than my life 


1)|-------3-3-------3-3---3-2-1--|-------3-3---------3-3---3-2-1--|
2)|----5----------5--------------|----5-----------5---------------|
3)|-4----------4-----------------|-4----------4-------------------|
4)|------------------------------|--------------------------------|
5)| -----------------------------|--------------------------------|
6)| -----------------------------|--------------------------------|

1)|-------3-3-------3-3---3-2-1--|-------3-3---------3-3-3-2-1-2--|
2)|----5----------5--------------|----5-----------5---------------|
3)|-4----------4-----------------|-4----------4-------------------|
4)|------------------------------|--------------------------------|
5)| -----------------------------|--------------------------------|
6)| -----------------------------|--------------------------------|


1)|-------3-3-------3-3---3-2-1--|-------3-3---------3-3-3-2-1-2--|
2)|----5----------5--------------|----5-----------5---------------|
3)|-4----------4-----------------|-4----------4-------------------|
4)|------------------------------|--------------------------------|
5)| -----------------------------|--------------------------------|
6)| -----------------------------|--------------------------------|


1)|-------3-3-------3-3---3-2-1--|-------3-3---------3-3---3-2-1--|
2)|----5----------5--------------|----5-----------5---------------|
3)|-4----------4-----------------|-4----------4-------------------|
4)|------------------------------|--------------------------------|
5)| -----------------------------|--------------------------------|
6)| -----------------------------|--------------------------------|

1)|-------3-3-------3-3---3-2-1--|-------3-3---------3-3-3-2-1-2--|
2)|----5----------5--------------|----5-----------5---------------|
3)|-4----------4-----------------|-4----------4-------------------|
4)|------------------------------|--------------------------------|
5)| -----------------------------|--------------------------------|
6)| -----------------------------|--------------------------------|


Текст, аккорды и табулатура для песни "Seperation", исполняет "As I Lay Dying".
Используемые в песне аккорды можно найти в разделе Как брать аккорды. Аккорды для шестиструнной гитары. Другие песни можно найти на нашем сайте, воспользовавшись алфавитным указателем вверху страницы.


Слушать онлайн The Pain Of Separation


As I Lay DyingThe Pain Of Separation на Яндекс.Музыке


 
Ошибка в тексте? Выделите ошибку и нажмите Ctrl+Enter