as i lay dying-reinvention


     3x                          
|--------------------------
|--------------------------
|--------------------------
|-------5--6--5--8--6--5--6
|--------------------------
|--0-0---------------------
   . .
   1x
|---------------------------------
|---------------------------------
|---------------------------------
|-------5--6--5--8--6-5-6-8-6-5-6-
|---------------------------------
|--0-0----------------------------
   . .



    3x                          
|--------------------------
|--------------------------
|--------------------------
|-------5--6--5--8--6--5--6
|--------------------------
|--0-0---------------------
   . .

 1x
|---------------------------------
|---------------------------------
|---------------------------------
|-------5--6--5--8--6-5-6-8-6-5-6-
|---------------------------------
|--0-0----------------------------
   . .

 3x                          
|--------------------------
|--------------------------
|--------------------------
|-------5--6--5--8--6--5--6
|--------------------------
|--0-0---------------------
   . .

1x
|---------------------------------
|---------------------------------
|---------------------------------
|-------5--6--5--8--6-5-6-8-6-5-6-
|---------------------------------
|--0-0----------------------------
   . .


3x                          
|--------------------------
|--------------------------
|--------------------------
|-------5--6--5--8--6--5--6
|--------------------------
|--0-0---------------------
   . .


1x
|---------------------------------
|---------------------------------
|---------------------------------
|-------5--6--5--8--6-5-6-8-6-5-6-
|---------------------------------
|--0-0----------------------------
   . .


3x                          
|--------------------------
|--------------------------
|--------------------------
|-------5--6--5--8--6--5--6
|--------------------------
|--0-0---------------------
   . .


1x
|---------------------------------
|---------------------------------
|---------------------------------
|-------5--6--5--8--6-5-6-8-6-5-6-
|---------------------------------
|--0-0----------------------------
   . .



0:49
part still needs work
|------
|-------
|-----
|------
|-----
|--------



then it goes back to the begining

   3x                          
|--------------------------
|--------------------------
|--------------------------
|-------5--6--5--8--6--5--6
|--------------------------
|--0-0---------------------
   . .
   1x
|---------------------------------
|---------------------------------
|---------------------------------
|-------5--6--5--8--6-5-6-8-6-5-6-
|---------------------------------
|--0-0----------------------------
   . .



    3x                          
|--------------------------
|--------------------------
|--------------------------
|-------5--6--5--8--6--5--6
|--------------------------
|--0-0---------------------
   . .

 1x
|---------------------------------
|---------------------------------
|---------------------------------
|-------5--6--5--8--6-5-6-8-6-5-6-
|---------------------------------
|--0-0----------------------------
   . .

 3x                          
|--------------------------
|--------------------------
|--------------------------
|-------5--6--5--8--6--5--6
|--------------------------
|--0-0---------------------
   . .

1x
|---------------------------------
|---------------------------------
|---------------------------------
|-------5--6--5--8--6-5-6-8-6-5-6-
|---------------------------------
|--0-0----------------------------
   . .


3x                          
|--------------------------
|--------------------------
|--------------------------
|-------5--6--5--8--6--5--6
|--------------------------
|--0-0---------------------
   . .


1x
|---------------------------------
|---------------------------------
|---------------------------------
|-------5--6--5--8--6-5-6-8-6-5-6-
|---------------------------------
|--0-0----------------------------
   . .


3x                          
|--------------------------
|--------------------------
|--------------------------
|-------5--6--5--8--6--5--6
|--------------------------
|--0-0---------------------
   . .


1x
|---------------------------------
|---------------------------------
|---------------------------------
|-------5--6--5--8--6-5-6-8-6-5-6-
|---------------------------------
|--0-0----------------------------
   . .



1:30

on this part im not really sure how the rythim and how many times
he plays so listen to the song and figure that part out
    ?x
|----------------------------------
|----------------------------------
|----------------------------------
|-------2----------------2---------
|-------2----------------2---------
|--0-0--0--0--0-0-0-0-0--0--0-0-0--
   . .     .  . . . . .     . . .


2:00

|-----------------------------------------------
|-----------------------------------------------
|-----------------------------------------------
|---------2---7--6--9---------2---7--6--9-------
|---------2-------------------2-----------------
|--0--0---0-------------0--0--0-----------------
   .  .                 .  .


|-----------------------------------------------
|-----------------------------------------------
|-----------------------------------------------
|---------2---7--6--4---------2---7--6--4-------
|---------2-------------------2-----------------
|--0--0---0-------------0--0--0-----------------
   .  .                 .  .

|-----------------------------------------------
|-----------------------------------------------
|-----------------------------------------------
|---------2---7--6--9---------2---7--6--9-------
|---------2-------------------2-----------------
|--0--0---0-------------0--0--0-----------------
   .  .                 .  .


|-----------------------------------------------
|-----------------------------------------------
|-----------------------------------------------
|---------2---7--6--4---------2---7--6--4-------
|---------2-------------------2-----------------
|--0--0---0-------------0--0--0-----------------
   .  .                 .  .


|-----------------------------------------------
|-----------------------------------------------
|-----------------------------------------------
|---------2---7--6--9---------2---7--6--9-------
|---------2-------------------2-----------------
|--0--0---0-------------0--0--0-----------------
   .  .                 .  .


|-----------------------------------------------
|-----------------------------------------------
|-----------------------------------------------
|---------2---7--6--4---------2---7--6--4-------
|---------2-------------------2-----------------
|--0--0---0-------------0--0--0-----------------
   .  .                 .  .


|-----------------------------------------------
|-----------------------------------------------
|-----------------------------------------------
|---------2---7--6--9---------2---7--6--9-------
|---------2-------------------2-----------------
|--0--0---0-------------0--0--0-----------------
   .  .                 .  .


|-----------------------------------------------
|-----------------------------------------------
|-----------------------------------------------
|---------2---7--6--4---------2---7--6--4-------
|---------2-------------------2-----------------
|--0--0---0-------------0--0--0-----------------
   .  .                 .  .


|-----------------------------------------------
|-----------------------------------------------
|-----------------------------------------------
|---------2---7--6--9---------2---7--6--9-------
|---------2-------------------2-----------------
|--0--0---0-------------0--0--0-----------------
   .  .                 .  .


|-----------------------------------------------
|-----------------------------------------------
|-----------------------------------------------
|---------2---7--6--4---------2---7--6--4-------
|---------2-------------------2-----------------
|--0--0---0-------------0--0--0-----------------
   .  .                 .  .


2:39

3x                          
|--------------------------
|--------------------------
|--------------------------
|-------5--6--5--8--6--5--6
|--------------------------
|--0-0---------------------
   . .
   1x
|---------------------------------
|---------------------------------
|---------------------------------
|-------5--6--5--8--6-5-6-8-6-5-6-
|---------------------------------
|--0-0----------------------------
   . .


3x                          
|--------------------------
|--------------------------
|--------------------------
|-------5--6--5--8--6--5--6
|--------------------------
|--0-0---------------------
   . .
   1x
|---------------------------------
|---------------------------------
|---------------------------------
|-------5--6--5--8--6-5-6-8-6-5-6-
|---------------------------------
|--0-0----------------------------
   . .


3x                          
|--------------------------
|--------------------------
|--------------------------
|-------5--6--5--8--6--5--6
|--------------------------
|--0-0---------------------
   . .
   1x
|---------------------------------
|---------------------------------
|---------------------------------
|-------5--6--5--8--6-5-6-8-6-5-6-
|---------------------------------
|--0-0----------------------------
   . .

3:04
not sure for this part
|
|
|
|
|
|


3:29
  12x
|----------------------------------------------
|----------------------------------------------
|-----7---7----7---7----8---8----8----8---8----
|----------------------------------------------
|-------5---5---5----5----5---5----5----5------
|----------------------------------------------


4:15
there is more open E pall mute on this one but i didnt put but
listen to the songs and you'll figure it out
|-----------------------------------------------------
|--------------------------sorry but thats all i know-
|-----------------------------------------------------
|--2-------------2------------------------------------
|--2-------------2------------------------------------
|--0---0--0--0---0---0--0--0--------------------------
       .  .  .       .  .  .


Текст, аккорды и табулатура для песни "Reinvention", исполняет "As I Lay Dying".
Используемые в песне аккорды можно найти в разделе Как брать аккорды. Аккорды для шестиструнной гитары. Другие песни можно найти на нашем сайте, воспользовавшись алфавитным указателем вверху страницы.


Слушать онлайн Reinvention


As I Lay DyingReinvention на Яндекс.Музыке


 
Ошибка в тексте? Выделите ошибку и нажмите Ctrl+Enter