INTRO:
    Em                   C                 D                       Em
E|--7------5------5p7h5--3------------0----2----------2p3h2--------3------3-------3----|
B|----7------7--------------1-------1---1----3-----3------------3----0------0-------0--|
G|------6------6--------------0---0-------------2------------2---------0-------0-------|
D-------------------2----------0-------------------------------------------|
A------------3-------------------------------------------------------------|
E|--0----------------------------------------------------------------------------------|
  
    Em                   C                 D                       Em
E|--7------5------5p7h5--3------------0----2----------2p3h2--------------------0-------|
B|----7------7--------------1-------1---1----3-----3------------3------------0---0-----|
G|------6------6--------------0---0-------------2------------2-------------0-------0---|
D-------------------2----------0----------------------------2--------------|
A------------3-------------------------------------------2-----------------|
E|--0--------------------------------------------------------------0-------------------|

    C              D               Em                              
E|-----0-------0-----------0-----------------0-----0-----0----------|
B|--1----1---1---1-------3---3-------------0---0-----0-----0---0----|
G|---------0-----------0-------0---------0-------0-----0-----0---0--|
D--------4-----------4-----2----------------------------|
A|--3--------------5-----------------2------------------------------|
E----------------------0---------------0----------------|
    C                D                Em
E|--3-----0-----3----5------0-----5-------------0------7----|
B|----1-----1-----1----3------3-----3---------0---0----7----|
G|------0-----0----------0------0-----------0-------0--7----|
D-----------------------------2-----------------|
A|--3----------------5------------------2-------------------|
E-------------------------0---------------------|
VERSE 1:

    Em                             C                D
E|--2----0-----2---2-----0-----2------------------------------------|
B|----0----0-----0---0-----0-----0---1-----1-----1----3----3-----3--|
G|------0----0---------0-----0---------0-----0----------0----0------|
D----------------------------2-----2----------4----4----|
A----------------------3----------------5---------------|
E-------------------------------------------------------|
	Я строю города из пепла на бумаге,

    Em                             C                D
E|--2----0-----2---2-----0-----2------------------------------------|
B|----0----0-----0---0-----0-----0---1-----1-----1----3----3/7------|
G|------0----0---------0-----0---------0-----0----------0------0----|
D----------------------------2-----2----------4------4--|
A----------------------3----------------5---------------|
E-------------------------------------------------------|
	Из пламени и льда ввысь полнимаю флаги.

    C               D               Em
E|--3-----------0---5-----------0-------------0-----0-----0----0----|
B|----1-------1---1---3-------3---3---------0---0-----0-----0----0--|
G|------0---0-----------0---0-------------0-------0-----0-----0-----|
D|--------2---------------4-------------2---------------------------|
A|--3---------------5-----------------2-----------------------------|
E-----------------------0---------------0---------------|
	Дарую девам грусть, а рыцарям походы,

    C               D
E|--3-----------0---5-----------0----|
B|----1-------1---1---3-------3---3--|
G|------0---0-----------0---0--------|
D|--------2---------------4----------|
A|--3---------------5----------------|
E------------------------| 
	Их мир не прочен, пусть - зато не властны годы!	

CHORUS:
 C             D             Em      
   Там рыцарь ночи скачет в вихре звезд,
 C            D          Em
  В руке сжимая светлый луч луны,
 C         D             Em
  И конь его с копыт бросает сны,
 C            D         Em  
   Когда он проезжает млечный мост.

SOLO:

E|--7--5--5-7----------------------7--5-5-9----------------------| 
B8--8/3--3-5-3--1-3-1----------8--8/3--3-5-3--1-3-1--|
G----------------------------------------------------|
D----------------------------------------------------|
A----------------------------------------------------|
E----------------------------------------------------|



E|--------0-------0-----------0-----0-----0-----0----| 
B|------1-------3-----------0---0-----0-----0-----0--|
G-------------0-------0-----0-----0------|
D|----2-------4---------2----------------------------|
A|--3-------5---------2------------------------------|
E-------0--------------------------------|


E|--3-----0-----3----5------0-----------3-----------0------7----|
B|----1-----1-----1----3------3---3--5--5---------0---0----7----|
G|------0-----0----------0------0-------0-------0-------0--7----|
D---------------------------------2-----------------|
A|--3----------------5----------------------2-------------------|
E-----------------------------0---------------------|


VERSE 2:

Там светят звезд глаза, ветра ласкают травы,
И рвется ввысь лоза средь стен лесной дубравы.
Спрессован линий мир в единое мгновенье,
Там время - не вампир, там символ - откровенье!

CHORUS.


Текст, аккорды и табулатура для песни "Млечный мост", исполняет "Аризона".
Используемые в песне аккорды можно найти в разделе Как брать аккорды. Аккорды для шестиструнной гитары. Другие песни можно найти на нашем сайте, воспользовавшись алфавитным указателем вверху страницы.


 
Ошибка в тексте? Выделите ошибку и нажмите Ctrl+Enter