Intro :

E|----------------------------------------------------------|
B|----------------------------------------------------------|
G|----------------------------------------------------------|
D|---7--------5--------4--------5--5--5--5--4------2----(2)-|
A|---7--------5--------4--------5--5--5--5--4------2----(2)-|
E|---5--0--0--3--0--0--2--0--0--3--3--3--3--2--0---0----(0)-|

I verse :

   Лунный свет твой сон в земле нарушит
E|---------------------------------|
B|---------------------------------|
G|--------------------5------------|
D|---7----------------5----------2-|
A|---7----------------3----------2-|
E|---5---------------------------0-|

   Полночь бросит колдовской метал
E|---------------------------------|
B|---------------------------------|
G|--------------------5------------|
D|---5--7-------------5----------2-|
A|---5--7-------------3----------2-|
E|---3--5------------------------0-|

   Пес завоет по усопшим душам
E|-----|
B|-----|
G|---7-|
D|---7-|
A|---5-|
E|-----|

   Рухнет вниз могильная плитa
E|-----|
B|-----|
G|---7-|
D|---7-|
A|---5-|
E|-----|

Три часа горит костер в часовне
Там, где перевернут черный крест
Три часа свободы есть у Зомби
Чтоб вершить свой страшный суд и месть

Chorus:

Зомби! Твой убийца крепко спит, но ты его найдешь
Зомби! Не спасут его мольбы и святая ложь
Зомби! Лунный свет - хозяин твой, он за твоей спиной

E|-------------------------------------------|
B|-------------------------------------------|
G|-----------------------------------------4-|
D|---2-------------2-----------------7-----4-|
A|---2-------------2-----------------7-----2-|
E|---0---3-2-3-2-0-0-2-3-2--3--2--0--5-------|

Три часа горит костер в часовне
Там, где перевернут черный крест
Три часа свободы есть у Зомби
Чтоб вершить свой страшный суд и месть

Зомби!
Твой убийца крепко спит, но ты его найдешь
Зомби!
Не спасут его мольбы и святая ложь
Зомби!
Лунный свет - хозяин твой, он за твоей спиной
Зомби!
Лишь кровавою ценой обретешь покой
Зомби!

Рваный саван вновь пропитан кровью
Цель близка, и страшен твой прыжок
Гром расколет небо над тобою
И сразит убийцу твой клинок...


Текст, аккорды и табулатура для песни "Зомби", исполняет "Ария".
Используемые в песне аккорды можно найти в разделе Как брать аккорды. Аккорды для шестиструнной гитары. Другие песни можно найти на нашем сайте, воспользовавшись алфавитным указателем вверху страницы.


 
Ошибка в тексте? Выделите ошибку и нажмите Ctrl+Enter