Вступление и проигрыш после каждого куплета:
 ---------------------------------------------------------------------------
 ---------------------------------------------------------------------------
 ---------------------------------------------------------------------------
 ---------------------------------------------------------9-7-----7-5-------
 -7-9-10-7-9-10-5-7-9-5-7-9-3-5-7-3-5-7-2-3-2-3-2--7-9-10---0-9-5-0---7-3---
 -0-------------0-----------0-----------0----------0------------------------
 
 
 ---------------------------------------------------------------------------
 ---------------------------------------------------------------------------
 --------------------7-6-4---------------------7-6-4---------
 - ---2-5-4------5---5---------------------5---5-------9-9-9---
 -3-------5-2----7---------9-9-9-10-7-9----7---------7-7-7---
 -----------0--------------7-7-7---------------------0-0-0---
 
 Em            D
 Эй, торреро, жизнь как миг.
 C                H
 Опять звучит трубы призывный зов.
 Em            D
 Эй, торреро, ты или бык?
 C           H
 Качается чаша весов.
 
    C     Am     H    C             H A H
    Бог хранит тебя, смерть щадит тебя.
    C     (Am)     H   C        (Am)    H
    Неба белый платок, кровь и желтый песок
    Крик отчаянья, бык живая мишень.
    Под восторженный вой ты играешь судьбой
    Пусть незнает никто, что творится в душе.
 
 Эй, торреро, сын вдовы.
 Твой красный плащ, твой траурный покров.
 Эй, торерро, ты будешь убит
 Под песню мадридских часов.
 
    припев:



Текст, аккорды и табулатура для песни "Тореро", исполняет "Ария".
Используемые в песне аккорды можно найти в разделе Как брать аккорды. Аккорды для шестиструнной гитары. Другие песни можно найти на нашем сайте, воспользовавшись алфавитным указателем вверху страницы.


 
Ошибка в тексте? Выделите ошибку и нажмите Ctrl+Enter