(0:01 - 0:11)
Интро:
Бас   G-----------------------------------|
      D|---5-----4------------------------------------|
      A--------5-----4--------------------|
      E------------------------3-----0----|
(0:11 - 0:19)
Рифф 1:
Гит.1E----------------------------------------------------------------------------|
     H----------------------------------------------------------------------------|
     G----------------------------------------------------------------------------|
     D----------------------------------------------------------------------------|
     A----------------------------------------------------------------------------|
     E|-0--0--0--0--0--0--0--0--0--0--0--0--0--0--0--0--|-0--0--0--0--0--0--0--0--0--0--0--0--0--0--0--0--|
      |                                                 |                                                 |
Гит.2E----------------------------------------------------------------------------|
     H------------------------------------------------------------------------------|
     G------------------------------------------------------------------------------|
     D----------------------------------------------------------------------------|
     A----------------------------------------------------------------------------|
     E----------------------------------------------------------------------------|

(0:19 - 0:47)
 1 Куплет:
ВокалЕ----------------------------------------------------------------------------------------|
     H----------7---8-------------------------------------------------------------------------|
     G|-------9-----7--9--------------7---9---7--------9--------------------------------------------------|
     D--------------------------------9-------------------------------------------------------|
     A----------------------------------------------------------------------------------------|
     E|------ Он   выбрал  весьма     у -дачный маршрут   ------------------------------------------------|
      |                                                 |                                                 |
Гит.1E----------------------------------------------------------------------------|
     H----------------------------------------------------------------------------|
     G----------------------------------------------------------------------------|
     D----------------------------------------------------------------------------|
     A----------------------------------------------------------------------------|
     E|-0--0--0--0--0--0--0--0--0--0--0--0--0--0--0--0--|-0--0--0--0--0--0--0--0--0--0--0--0--0--0--0--0--|
      |                                                 |                                                 |
Гит.2E----------------------------------------------------------------------------|
     H----------------------------------------------------------------------------|
     G-------------------------------------------------------------------------7--|
     D|-2-----------------------------------------------|-------9-----7-/9-----4-/5--------------4--5-----|
     A|-2-----------------------------------------------|-------7-----5-/7-----2-/3-----5--2--------------|
     E|-0-------------------------------------------------------------------3--0--------------|
 
ВокалЕ----------------------------------------------------------------------------------------|
     H---------7----8-------------------------------------------------------------------------|
     G|-------9-----7--9--------------7---9---7------9----------------------------------------------------|
     D---------------------------------9------------------------------------------------------|
     A----------------------------------------------------------------------------------------|
     E|------ Объ -  ехал  весь мир   за двадцать минут   ------------------------------------------------|
      |                                                 |                                                 |
Гит.1E----------------------------------------------------------------------------|
     H----------------------------------------------------------------------------|
     G----------------------------------------------------------------------------|
     D----------------------------------------------------------------------------|
     A----------------------------------------------------------------------------|
     E|-0--0--0--0--0--0--0--0--0--0--0--0--0--0--0--0--|-0--0--0--0--0--0--0--0--0--0--0--0--0--0--0--0--|
      |                                                 |                                                 |
Гит.2E----------------------------------------------------------------------------|
     H----------------------------------------------------------------------------|
     G|-(7)-------------------------------------------------------------------------------7--|
     D--------------------------------------|-------9-----7-/9-----4-/5--------------4--5-----|
     A--------------------------------------|-------7-----5-/7-----2-/3--0--5-/7--------------|
     E----------------------------------------------------------3-/5--------------|
 
              Он   видел     огни    нездешних  реклам.
Гит.1E----------------------------------------------------------------------------|
     H----------------------------------------------------------------------------|
     G----------------------------------------------------------------------------|
     D----------------------------------------------------------------------------|
     A----------------------------------------------------------------------------|
     E|-0--0--0--0--0--0--0--0--0--0--0--0--0--0--0--0--|-0--0--0--0--0--0--0--0--0--0--0--0--0--0--0--0--|
      |                                                 |                                                 |
Гит.2E----------------------------------------------------------------------------|
     H----------------------------------------------------------------------------|
     G|-(7)-------------------------------------------------------------------------------7--|
     D--------------------------------------|-------9-----7-/9-----4-/5--------------4--5-----|
     A--------------------------------------|-------7-----5-/7-----2-/3--0--5-/7--------------|
     E----------------------------------------------------------3-/5--------------|
 
              Он   видел    у -лыб - ки  сказоч -ных  дам.
Гит.1E----------------------------------------------------------------------------|
     H----------------------------------------------------------------------------|
     G----------------------------------------------------------------------------|
     D----------------------------------------------------------------------------|
     A----------------------------------------------------------------------------|
     E|-0--0--0--0--0--0--0--0--0--0--0--0--0--0--0--0--|-0--0--0--0--0--0--0--0--0--0--0--0--0--0--0--0--|
      |                                                 |                                                 |
Гит.2E----------------------------------------------------------------------------|
     H----------------------------------------------------------------------------|
     G|-(7)------------------------------------------------------------------------4h5p4p2-------|
     D--------------------------------------|-------9-----7-/9-----4-/5-------------------5-4-2-|
     A--------------------------------------|-------7-----5-/7-----2-/3-----5--2--------------|
     E-------------------------------------------------------0--3--0--------------|
(0:47 - 1:01)
Прелюдия:
ВокалЕ|------5--5---5---5----8----------------------------------5--5--5--5--------------------------------|
     H---------8-------------------------------------------------8--5-------------------------|
     G----------------------------------------------------------------------------------------|
     D----------------------------------------------------------------------------------------|
     A----------------------------------------------------------------------------------------|
     E|---- Он не  жал на педаль.                              На ветру не дрожал.    --------------------|
      |                                                 |                                                 |
Гит.2E----------------------------------------------------------------------------|
     H----------------------------------------------------------------------------|
     G----------------------------------------------------------------------------|
     D----------------------------------------------------------------------5-----|
     A|-7--7--------------------------------------------|-7--7-------------------------------/7-----------|
     E|-5--5--------------------------------------------|-5--5--------------------0-----3-----------------|
 
ВокалЕ|------5---5-5--5-------8--10-8---------------------------5-5--5--5---------------------------------|
     H-------8---------------------------------------------------8--5-------------------------|
     G----------------------------------------------------------------------------------------|
     D----------------------------------------------------------------------------------------|
     A----------------------------------------------------------------------------------------|
     E|---- Он читал перед сно -о -ом                         популярный  журнал     ---------------------|
      |                                                 |                                                 |
Гит.2E----------------------------------------------------------------------------|
     H----------------------------------------------------------------------------|
     G----------------------------------------------------------------------------|
     D----------------------------------------------------------------------------|
     A|-7--7--------------------------------------------|-7--7--------------------------------------------|
     E|-5--5--------------------------------------------|-5--5--------------------------------------------|
(1:02 - 1:15)
ПредПрипев:
VoiceE----------------------------------------------------------------------------------------|
     H|--8----------------------------------7---5---5-----------5--5--------------------------5-----7-----|
     G-------------------------------------7--7-----------------------------------------------|
     D----------------------------------------------------------------------------------------|
     A----------------------------------------------------------------------------------------|
     E| Мммммммм                          с  иллюстраци -и  
цветной.                       Ли  - вер -  |
      |                                                 |                                                 |
Гит.1E----------------------------------------------------------------------------|
     H----------------------------------------------------------------------------|
     G----------------------------------------------------------------------------|
     D----------------------------------------------------------------------------|
     A----------------------------------------------------------------------------|
     E|-0--0--0--0--0--0--0--0--0--0--0--0--0--0--0--0--|-0--0--0--0--0--0--0--0--0--0--0--0--0--0--0--0--|
 
ВокалЕ--------------5-------------------------------------------------------------------------|
     H|--8----------7-----5-----------------8-----7-------5------------------------------------8-7-5------|
     G------------------------------------------------------------------------------------7---|
     D----------------------------------------------------------------------------------------|
     A----------------------------------------------------------------------------------------|
     E| -пуль,     Син - га  - пур          и    Ха  -   ной´.                                Позади Ав- -|
      |                                                 |                                                 |
Гит.1E----------------------------------------------------------------------------|
     H----------------------------------------------------------------------------|
     G----------------------------------------------------------------------------|
     D|-5-----------------------7-------------------------------------------------------------|
     A|-3-----------------------5-----------------------|-7-----------------------------------------------|
     E--------------------------------------|-5-----------------------------------------------|
(1:15 - 1:44)
Припев:
       стралия.                              Позади Ев - ро - па.                           Позади Ан - 
Гит.1E----------------------------------------------------------------------------|
     H----------------------------------------------------------------------------|
     G----------------------------------------------------------------------------|
     D----------------------------------------------------------------------------|
     A----------------------------------------------------------------------------|
     E|-0-----2-----3-----4--5--------3-----2-----3-----|-0-----2-----3-----4--5-----5-p3-----2-----3-----|
       тарктика.                          Впе  -  ре  -  ди                весь мир.         Позади  И -
Гит.1E----------------------------------------------------------------------------|
     H----------------------------------------------------------------------------|
     G----------------------------------------------------------------------------|
     D----------------------------------------------------------------------------|
     A--------------------------------------|-3-----2-----3-----4--5-----5-p3-----2-----------|
     E|-0-----2-----3-----4--5-----5-p3-----2-----3-------------------------------------3-----|
(1:44 - 1:51) Рифф 1
(1:52 - 2:21) 2 Куплет.
(2:21 - 2:35) Прелюдия
(2:35 - 2:50) ПредПрипев
(2:50 - 3:19) Припев
...
(4:11 - 5:11) Припев (*2 раза)


Текст, аккорды и табулатура для песни "Позади Америка", исполняет "Ария".
Используемые в песне аккорды можно найти в разделе Как брать аккорды. Аккорды для шестиструнной гитары. Другие песни можно найти на нашем сайте, воспользовавшись алфавитным указателем вверху страницы.


 
Ошибка в тексте? Выделите ошибку и нажмите Ctrl+Enter