Вступление:
5 -------------------------------------------------------------------------------------------------------
6 -7-7-7-7-7-7-7-7-7-10-10-10-6-6-6-6-6-6-6-6-6-6-6-6-7-7-7-7-7-7-7-7-7-10-10-10-8-8-8-8-8-8-3-3-3-3-3-3- (2 раза)

5 -----10---9---8-9-----7---5-7--------------------------------------------------------------------------
6 -7-7----7---7-----5-5---5------------------------------------------------------------------------------ (4 раза)

5 -5---4---7---4-----------------------------------------------------------------------------------------
6 ---2---2---2---2--------------------------------------------------------------------------------------- (2 раза)

5 -7-------5-------4-------2-----------------------------------------------------------------------------
6 ---2-2-2---2-2-2---2-2-2---2-2-2-----------------------------------------------------------------------

                       (Gm)
4 -----------------------5-------------------------------------------------------------------------------
5 -7-------4-------2-----5-------------------------------------------------------------------------------
6 ---2-2-2---2-2-2---2-2-3-------------------------------------------------------------------------------


5/6 -7-7-7-7-7-7-7-7-7-7-7-7-7-7-7-7---0-2-3-5-3-2-0---------



Em                            D C
Твой дом стал для тебя тюрьмой
C                               C D
Для тех, кто в доме, ты - чужой
D                        Em  5/6 -0-2-3-5-3-2-0-
Ты был наивен и ждал перемен
Em                           D C
Ты ждал, что друг тебя поймет
C                            C D
Поймет и скажет: Жми вперед!
D                                   Em  5/6 -0-2-3-5-3-2-0-
Но друг блуждал среди собственных стен

Am         G
  Горел асфальт
F            G
  От солнца и от звезд
Am        G
  Горел асфальт
F     G
  Под шум колес
Am       G
  Горел асфальт
F           G
  Ты чувствовал тепло
Am        G
  Горел асфальт
F          G
  Снегам назло



Ты сам решил пойти на риск
Никто не крикнул: Берегись!
И ты покрасил свой шлем в черный цвет
Как зверь мотор в ночи ревет
Пустырь, разъезд и разворот...
Ты мстил за груз нелюбви прошлых лет

Запел асфальт
Ты слышал каждый звук
Запел асфальт
Как сердца стук
Запел асфальт
Ты был его герой
Так пел асфальт
Пел за спиной!

Был миг - ты верил в знак удач
Ведь ты был молод и горяч
Но твой двойник мчал навстречу тебе
Он был свободен как и ты
Никто не крикнул: Тормози!
Такой приказ неизвестен судьбе

Горел асфальт
От сбитых с неба звезд
Горел асфальт
Под шум колес
Кричал асфальт
Ты был его герой
Кричал асфальт
Кричала боль
	
	
	        
Комментарий автора: Играется медиатором. "5/6" означает, что можно играть как на пятой, так и на шестой струне. Кому как нравится) Куплет можно играть аккордами. Лучше закрытыми. Или просто на одной струне. Т.е. берется не весь аккорд, а только пятая струна из этого аккорда. На припеве бьем медиатором вниз по струнам на аккордах Am и F, вниз вверх на G.

Текст, аккорды и табулатура для песни "Герой Асфальта (Акустика)", исполняет "Ария".
Используемые в песне аккорды можно найти в разделе Как брать аккорды. Аккорды для шестиструнной гитары. Другие песни можно найти на нашем сайте, воспользовавшись алфавитным указателем вверху страницы.


 
Ошибка в тексте? Выделите ошибку и нажмите Ctrl+Enter