Вступление:

эл. гитара :
1-------------------------------------------------------------|
2-------------------------------------------------------------|
3|-(0)--------------------------------------------------------------------|
4|--5------9~~----------------------------------------------------7----9~~|
5|--7-----10~~----10----9----7----9~----7----5--------7--9-10-------------|
6|-(0)----(0)-------------------------------------------------------------|


1-----------------------------------------|
2-----------------------------------------|
3-----------------------------------------|
4|----7---------------------------------------0-------|  Повторить 2р
510-----9-----10-----9-----7------5~------|
6-----------------------------------------|



1-------------------------------------------------------------|
2-------------------------------------------------------------|
3|-(0)--------------------------------------------------------------------|
4|--5------9~~----9----7------7~-----------------------------------7----9~|
5|--7-----10~~------------10----------10-----9------7-----9-----10--------|
6|-(0)----(0)-------------------------------------------------------------|


1--------------------------------------------------------|
2--------------------------------------------------------|
3--------------------------------------------------------|
4|----7---------------------------------------0----------------------| 
510-----9-----10-----9-----7------5~---------------------|
6--------------------------------------------------------|


1--------------------------------------------------------------|
2--------------------------------------------------------------|
3|-(0)---------------------------------------------------------------------|
4|--5------9~~----------------------------------------------------7----9~~-|
5|--7-----10~~-----10----9----7----9~----7----5--------7--9---10-----------|
6|-(0)----(0)--------------------------------------------------------------|


1--------------------------------------------------------|
2--------------------------------------------------------|
3--------------------------------------------------------|
4|----7---------------------------------------0----------------------|  
510-----9-----10-----9-----7------5~---------------------|
6--------------------------------------------------------|



:




Основная часть Аккустичка 

1----------------------------------------------------|
2|-0-----0-----0----1-----1----1---0-----0-----0----1----1-------|
3|---0-----0-----0----0-----0----0---0-----0-----0----0----0-----|
42----------2-----2--------2------2--------------2---|
5-------3------------------------------------3-------|
6|-0-------------------------------------0-----------------------|


Несколько раз 
1--------------------------------------------------------|
2|-0-----0-----0----1-----1----1---0-----0-----0----1----1-----------|
3|---0-----0-----0----0-----0----0---0-----0-----0----0----0---------| 
42----------2-----2---------2-----2--------------2-------|
5-------3------------------------------------3-----------|
6|-0-------------------------------0---------------------------------|


   Em               C                  Em         С
1--------------------------------------------------------|
2|-0-----0-----0----1-----1----1---0-----0-----0----1----1-----------|
3|---0-----0-----0----0-----0----0---0-----0-----0----0----0---------|
42----------2-----2--------2-----2----------2------------|
5--------------------------------------------------------|
6--------------------------------------------------------|
На  краю обрыва, за которым вечность,
Ты стоишь один во власти странных грез

   Em               C                G                 D
1--------------------------------------------------------|
2|-0-----0-----0----1-----1----1-----3-----3-----3----3----3---------|
3|---0-----0-----0----0-----0----0-----0-----0-----0----2----2-------|
42----------2-----2----------0-----0----------0----------|
5--------------------------------------------------------|
6------------------------3-------------------------------|
И, простившись с миром, хочешь стать беспечным,
Поиграть с огнем нездешних гроз.


Наконец ты счастлив как никто на свете,
Ангельская пыль тебя уносит вверх.
Только ей подвластны и восторг, и ветер,
В жидких небесах звучит твой смех.

Припев.
  
    Ангельская  пыль     
    C       D   Em  |___________________Это соло быстро_______________________|
1|--0------2-2----------------------------------------------------------------|
2|--1-1----3-3----------------------------------------------------------------|
3|--0-0----2-2--0-------------------------------------------------------------|
4|--2-2----0-0--2-------------------------------------------------------------|
5|--3-3----0----2---/10----9-10----12-----------------------------------------|
6|--3------2----0---------------------------12-----12---10----12--10----8--7--|


     Это сон и быль
1|--0------2-2----------------------------------------------------------------|
2|--1-1----3-3----------------------------------------------------------------|
3|--0-0----2-2--0--------------------5----------------------------------------|
4|--2-2----0-0--2-----4--4--4-----5--5----------------------------------------|
5|--3-3----0----2-----2--2--2-----3--3----------------------------------------|
6|--3------2----0--------------------------------3~------2--------------------|

               Безумец,                        беглец
Em                                       C           
1|---------0-------3^2--0-----------------0------3^2--0-------------|
2|-----0------0--------------0---------1-----1--------------1-------|
3-------------------------------------------------------|
4-------------------------------------------------------|
5------------------------3------------------------------|
6|-0----------------------------------------------------------------|

           - дороги нет

     G                                          D
1|--------3--------/7^5--------------------------------------------------|
2|----3------3-------------8---7-------7---------------------------------|
3--------------------------7---------------------------------|
4--------------------------5----0---4--5--7--5---4^5^4---0---|
5------------------------------------------------------------|
6|-3---------------------------------------------------------------------|

 
Ты видишь неверный свет.
    
    Em                                        C
1|---------0-------3^2--0----------------0------3^2--0-------------|
2|-----0------0--------------0--------1-----1---------------1------|
3------------------------------------------------------|
4------------------------------------------------------|
5-----------------------3------------------------------|
6|-0---------------------------------------------------------------|


      D  (Решил упростить жизнь и забить соло аккордом, но звучит нормально)
1-----------------------------------------------------------------|
2|---7------------------------------------------------------------------------|
3|---7--7--7----7--7--7--7----7--7--7------7--7--7----7--7--7--7--7--7--7--7--|
4|---5--5--5----5--5--5--5----5--5--5------5--5--5----5--5--5--5--5--5--5--5--|
5-----------------------------------------------------------------|
6-----------------------------------------------------------------|



    Am                                             F           
1--------------------------------------------------------------|
2-------1^0------------------------------------1^0-------------|
3|---------2---------------2---0-----------------2---------------2---0-----|
4-2-------------------------------3-------3--------------------|
5|-0-----------------------------------------------------------------------|
6------------------------------1-------------------------------|





    C                                         G
1------------------------------------------------------------|
2-------5^3--------------------------------------------------|
3|---------5---------------5---4-----------------------------------------|
4|-----5-------5--------------------5---0--4--5--7--5--4^5^4--0----------|
5|-3--------------------------------5------------------------------------|
6-----------------------3------------------------------------|


  Твой ангел зажег мираж огня.



    Am                                             F           
1--------------------------------------------------------------|
2-------1^0------------------------------------1^0-------------|
3|---------2---------------2---0-----------------2---------------2---0-----|
4-2-------------------------------3-------3--------------------|
5|-0-----------------------------------------------------------------------|
6------------------------------1-------------------------------|


     G
1--------------------------------------------------------|
2--------------------------------------------------------|
3--------------------------------------------------------|
4|-5-----------------------------------------------------------------|
5|-5---Та же штука что и с D-----------------------------------------|
6|-3--3--3-33-3-3-3-3-3-3-3-3----------------------------------------|

   Он хочет убить тебя...

После этого основную часть на акустике с маленькими басовыми вставками типа учащенной ноты 
ми (пустая шестая), а еще:

1-----------------------------------------------------------------|
2|-0-----0-----0----1-----1----1---0-----0-----0----1-------------------------|
3|---0-----0-----0----0-----0----0---0-----0-----0----0-----------------------| 
42----------2-----2--------2------2-------------------------------|  
5-------3-------------------------------3--------/10~~---9--7-----|
6|-0-------------------------------------0--------------------------------10--|

Дальше сначала эту фигуру со словами и играть как куплет (без вставок)

На краю обрыва песня неземная, 
Музыка богов и голоса богинь.
Ты паришь над миром, но торговец раем
Вынет душу из тебя за героин.


Ты устал быть птицей и сорвался камнем.
Рухнул с высоты, спасаясь от судьбы.
На краю обрыва вновь летят на пламя
Сотни мотыльков-самоубийц.


После второго припева небольшой проигрыш (ногтем резко):


1-----------------------------------------------------------------|
2-----------------------------------------------------------------|
3-----------------------------------------------------------------|
4-------------------------5х-------------------7х-----------------|
5|------0--5--7х---------------7--------------------9-----------------7---5~~~|
6|--0-------------------0---7---------------0---7--------------0---7----------|

Пару раз 
1-----------------------------------------------------------------|
2-----------------------------------------------------------------|
3-----------------------------------------------------------------|
4--------9x---------------10x---------------12x-------------------| 
5|---0---7---10-----------0---7---10-------0---10---12--------0--10-----------|
6--------------------------------------------------------12---10~~|

Соло перед последним куплетом              

1|-------12~~--7^8^7~~--------------7--8--7--12--7-8-7--10--7-8-7--12--7-8-7--|
2|---8------------------10^118~~---------------------------------------------|
3|---9------------------------------------------------------------------------|
4|---10-----------------------------------------------------------------------|
5-----------------------------------------------------------------|
6-----------------------------------------------------------------|

 
1-----------------------------------------------------------------|
2|-10~~x-7^8^7---------7-5-4---8-7-5-10-8-7---12-10-8-------------------------|
3----9~-7---------------------------------------------------------|
4-----------------------------------------------------------------| 
5-----------------------------------------------------------------|
6-----------------------------------------------------------------|


1|--8-7-5---10-8-7--12-10-8--14-12-10---19/~~--19/~~--19/~~-------------------|
2-----------------------------------------------------------------|
3-----------------------------------------------------------------|
4-----------------------------------------------------------------| 
5-----------------------------------------------------------------|
6-----------------------------------------------------------------|


Текст, аккорды и табулатура для песни "Ангельская пыль", исполняет "Ария".
Используемые в песне аккорды можно найти в разделе Как брать аккорды. Аккорды для шестиструнной гитары. Другие песни можно найти на нашем сайте, воспользовавшись алфавитным указателем вверху страницы.


 
Ошибка в тексте? Выделите ошибку и нажмите Ctrl+Enter