introduction
E/-----------------------------------------------------------/
B/--8-8-8-8-8------------------------------------------------/
G/--9-9-9-9-9----5-5-5-5-5----7-7-7-7-7----------------------/
D/--9-9-9-9-9----5-5-5-5-5----7-7-7-7-7---4-5-4-5-4-5-4-5-4--/
A/--7-7-7-7-7----3-3-3-3-3----5-5-5-5-5---2-3-2-3-2-3-2-3-2--/
E/-----------------------------------------------------------/ Do twice

verse                             FIRST TIME   SECOND TIME    
E/--0-0-0-0---3-3-3-3---5-5-5-5--/--2-2-2-2--/---------------------/
B/--2-2-2-2---5-5-5-5---7-7-7-7--/--4-4-4-4--/---------------------/
G/-------------------------------/-----------/---------------------/
D/-------------------------------/-----------/--4-5-4-5-4-5-4-5-4--/
A/-------------------------------/-----------/--2-3-2-3-2-3-2-3-2--/
E/-------------------------------/-----------/---------------------/

chorus
E/--------------------------------/---------------------
B/--------------------------------/---------------------
G/------------7-7-7-7---5-5-5-5---/---------------------
D/--5-5-5-5---7-7-7-7---5-5-5-5---/--4-5-4-5-4-5-4-5-4--
A/--5-5-5-5---5-5-5-5---3-3-3-3---/--2-3-2-3-2-3-2-3-2--
E/--3-3-3-3-----------------------/---------------------

solo
e|------7b-----7b-7b-5-3------7b-7b-5-3-3-----------------------|
B|------8b----------------5----------------5-5--3-3-------------|
G|--------------------------------------------------5-5--4-4----|
D|--------------------------------------------------------------|
A|--------------------------------------------------------------|
E|--------------------------------------------------------------|

e|----------------------------------5-3-----5-3-----------------|
B|-----------------------------3-5--5-3--5--5-3-----------------|
G|-----------------------2--4-----------------------------------|
D|------------------2-5-----------------------------------------|
A|-------------2-5----------------------------------------------|
E|---0-0--3-5---------------------------------------------------|

e|---5p3--------------------------------------------------------|
B|--------5p3---------------------------------------------------|
G|-------------4p2----------------------------------------------|
D|------------------5p2-----------------------------------------|
A|-----------------------5p2-----------2--3-2--3-2-3-2-3-2------|
E|--------------------------------------------------------------|


Текст, аккорды и табулатура для песни "Start Making Sense", исполняет "Area 7".
Используемые в песне аккорды можно найти в разделе Как брать аккорды. Аккорды для шестиструнной гитары. Другие песни можно найти на нашем сайте, воспользовавшись алфавитным указателем вверху страницы.


 
Ошибка в тексте? Выделите ошибку и нажмите Ctrl+Enter