Artist: Area 7
Song: 2nd Class Citizen

Main riff played in the intro and verses:
e---------------------------------------------------------------------|
B---------------------------------------------------------------------|
G-99999999------------------------9999--------------------------------|
D-99999999-99999999-77777777-9999-9999--------------------------------|
A-77777777-99999999-77777777-9999-7777--------------------------------|
E----------77777777-55555555-7777-------------------------------------|

Pre chorus:
e-7777-7777-5555-77-77-----------------------------------------------|
B-7777-7777-5555-77-77-----------------------------------------------|
G-9999-8888-6666-88-99-----------------------------------------------|
D-9999-9999-7777-99-99-----------------------------------------------|
A--------------------------------------------------------------------|
E--------------------------------------------------------------------|

Chorus & outro:
e-------------------   -----------------------------------------------|
B-------------------   -----------------------------------------------|
G-99999999----------   pm......---------------------------------------|
D-99999999-77777777-x2 9999999--then this part once at the end--------|
A-77777777-77777777-   99999999-------------------------------- ------|
E----------55555555-   77777777---------------------------------------|

Structure:
1 Play intro x2
2 Verse x4
3 Play pre chorus x2
4 Chorus
5 Verse x4
6 Pre chorus x2
7 Chorus
8 Outro

Verse:
I don't know what you think we do with our time
Do you think we don't know whats wrong or whats right
Do you think we are not all there just because of how we cut our hair
You treat us like we're living worthless lives...

Pre Chorus:
And so you think you've got us cornered now
So you think you've got us figured out
Well it won't be long before you hear a shout!

Chorus:
I don't wanna be: ( 2nd class citizen )
How can you call me: ( 2nd class citizen )
I don't wanna be : ( 2nd class citizen ) anymore
Not any more

Verse:
Governments making new laws all of the time
We try to tell them that being youngs not a crime
We try to tell them but they just don't care
This fucked up systems so unfair
Pretty soon we won't have any rights

Pre Chorus:
And so you think you've got us cornered now
So you think you've got us figured out
Well it won't be long before you hear a shout!

Chorus:
I don't wanna be: ( 2nd class citizen )
How can you call me: ( 2nd class citizen )
I don't wanna be : ( 2nd class citizen ) anymore
Not any more

Outro:
I don't wanna be.......x4


Текст, аккорды и табулатура для песни "2nd Class Citizen", исполняет "Area 7".
Используемые в песне аккорды можно найти в разделе Как брать аккорды. Аккорды для шестиструнной гитары. Другие песни можно найти на нашем сайте, воспользовавшись алфавитным указателем вверху страницы.


 
Ошибка в тексте? Выделите ошибку и нажмите Ctrl+Enter