Arch Enemy
We Will Rise
MTV2's Headbanger's Ball CD Compilation
Tuning: CGCFAD
Tabbed by: Robert Walden
Palm mute=*

Intro/CHorus-Guitar 1
-------------------------------------------------------
-------------------------------------------------------
-11-11-11-11-11-11-12-12-12-12-12-12-10-10-10-10-10-10-
--x--x--x--x--x--x--x--x--x--x--x--x--x--x--x--x--x--x-
--9--9--9--9--9--9-10-10-10-10-10-10--8--8--8--8--8--8-
-------------------------------------------------------

Guitar one cont..
------------------------------------
------------------------------------
-7-7-7-7-7-7-7-7-7-7-7-7-6-6-6-6-6-6
-x-x-x-x-x-x-x-x-x-x-x-x-x-x-x-x-x-x
-5-5-5-5-5-5-5-5-5-5-5-5-4-4-4-4-4-4
------------------------------------

Intro/Chorus-Guitar 2
----------------------------
----------------------------
----------------------------
----------------------------
-000000-888888-555555-777777
-000000-888888-555555-777777

Verse
------------------------------
----------15-18-17-15-20-18-16
-7----------------------------
-x----------------------------
-5----------------------------
------------------------------

Prechorus A
-----------------------------------------------------
-----------------------------------------------------
-----------------------------------------------------
-----------------------------------------------------
----------5---3---------3-3h5-----6---3---3-1---3-3h6
-15/--0-0---0---0-5-3-1-------0-0---0---0-3-1-0------
      * *   *   * * * * * *       * *   *   *     *

Prechorus B-tremolo pick 0's
------------------------------------------------
------------------------------------------------
------------------------------------------------
------------------------------------------------
-----------------3---3h6-----------------3---3h5
-000000000000000---0-----000000000000000---0----

Bridge
--------------------------------------------------------------
--------------------------------------------------------------
----------15-13----------12-10----------13-12-13-12-10-13-12^-
-------13-------------11-------------13-----------------------
-13-15----------11-13----------13-15--------------------------
--------------------------------------------------------------
 *  *  *        *  *  *        *  *  *

                                                   Rep. 4X-(13-12-10)
----------------------------------------------------------------
----------------------------------------------------------------
----------15^15-13----------12^12-10----------13-12-13-12-10-14^
-------13----------------11----------------13-------------------
-13-15-------------11-13-------------13-15----------------------
----------------------------------------------------------------
 *  *  *           *  *  *           *  *  *

Solo
-------------------------13-12---------------------------------------
-11-13-13h15-11-13-13h15-------11-13-13h15-13h15-15-13h15-15-13h15-15
---------------------------------------------------------------------
---------------------------------------------------------------------
---------------------------------------------------------------------
---------------------------------------------------------------------

-------------------------------17^---------------
-13h15p13h15p13h15p13h15-15h17----18-17-15----15^
-------------------------------------------17----
-------------------------------------------------
-------------------------------------------------
-------------------------------------------------

Ending Solo-guitar 3-repeated until song is ended
-------------------------------------------------------------------------
-------15-------15-------15-------15-------18-------18-------18-------18-
-14-17----14-17----14-17----14-17----15-17----15-17----15-17----15-17----
-------------------------------------------------------------------------
-------------------------------------------------------------------------
-------------------------------------------------------------------------

-------------------------------------------------------------------------
-------20-------20-------20-------20-------22-------22-------22-------22-
-17-19----17-19----17-19----17-19----19-21----19-21----19-21----19-21----
-------------------------------------------------------------------------
-------------------------------------------------------------------------
-------------------------------------------------------------------------

Guitar 4
---------------------------------------------22^-22-22-22-22-22-22-21^-
-----------------------15h18-18-15h18-18-18^---------------------------
-17h19-19-17h19-19-19^-------------------------------------------------
-----------------------------------------------------------------------
-----------------------------------------------------------------------
-----------------------------------------------------------------------

-17^-17-------17^---------------------
--------18-17----18-17-17-18-17----15^
--------------------------------17----
--------------------------------------
--------------------------------------
--------------------------------------

Man, that took SOO much time, and this solo was so tedious to type on here lol,
well ya it took me a while so rate it please. ARCH ENEMY!! IM me at kornfellow91
for comments or leave one in correction box above, enjoy


Текст, аккорды и табулатура для песни "We Will Rise", исполняет "Arch Enemy".
Используемые в песне аккорды можно найти в разделе Как брать аккорды. Аккорды для шестиструнной гитары. Другие песни можно найти на нашем сайте, воспользовавшись алфавитным указателем вверху страницы.


 
Ошибка в тексте? Выделите ошибку и нажмите Ctrl+Enter