Artist: April Wine
Song: Weeping Widow
Tabber: Samuel Scheideman 
Comments: I'm short the third guitar part I can't figure it out
:(... oh well I'll do it some other day
E-mail addy: [email protected]


Intro: Guitar 1 Acoustic 
E---------------------------------------------------------------------------
B---------------------------------------------------------------------------
G---2----2----2----2----2----2----2----2----2----2----2----5----7----5----0-
D---------------------------------------------------------------------------
A-0----0----0----0----0----0----0----0----0----0----0----0----0----0----0---
E---------------------------------------------------------------------------

E-------------------------------------------
B-------------------------------------------
G-2---2----2----2----2----2----2----2----2--
D-------------------------------------------
A---0----0----0----0----0----0----0----0----
E-------------------------------------------

E---------------------------------------------------------------------------
B---------------------------------------------------------------------------
G----2----5----7----5----7----5----0----2----2----2----2----2----2----2----2
D---------------------------------------------------------------------------
A--0----0----0----0----0----0----0----0----0----0----0----0----0----0----0--
E---------------------------------------------------------------------------


Verse: 

Weeping widow don't you cry
E---------------------------------------------------------------------------
B---------------------------------------------------------------------------
G----2----5----7----5----7----5----0----2----2----2----2----2----2----2----2
D---------------------------------------------------------------------------
A--0----0----0----0----0----0----0----0----0----0----0----0----0----0----0--
E---------------------------------------------------------------------------

Part two of the verse in-between sentences: I don't have them spaced out but
you play them in unison.
E-------------------------------------
B-------------------------------------
G----2----5----7----5----0---2----2---
D-------------------------------------
A--0----0----0----0----0----0----0----
E-------------------------------------
|
|Guitar 2 Electric
E--------------------------------------
B--------------------------------------
G-------5-7-5--------------------------
D---7-7-5-7-5-5-7-7--------------------
A---7-7-3-5-3-5-7-7--------------------
E---5-5-------3-5-5--------------------


Beginning/ ending of Chorus (Drums and Bass enter): Go straight to chorus after this part
E-----------------------------------------------------------------
B-----------------------------------------------------------------
G----------0-5-5-5-5-0---------0-7-7-7-7-0---------0-5-5-5-5-0----
D--7-7-7-7-0-5-5-5-5-0-5-5-5-5-0-7-7-7-7-0-7-7-7-7-0-5-5-5-5-0----
A--7-7-7-7-0-3-3-3-3-0-5-5-5-5-0-5-5-5-5-0-7-7-7-7-0-3-3-3-3-0-5--
E--5-5-5-5-------------3-3-3-3-------------5-5-5-5-------------3--

Chorus with a lead guitar part I can't figure out:
Guitar 
E----------------------
B----------------------
G-------9-9--4-4-------
D--7-7--9-9--4-4--5-5--
A--7-7--7-7--2-2--5-5--
E--5-5------------3-3--
|
|Guitar 3: ????
E--------------------------------------------------------------------------
B--------------------------------------------------------------------------
G--------------------------------------------------------------------------
D--------------------------------------------------------------------------
A--------------------------------------------------------------------------
E--------------------------------------------------------------------------


Drum solo and first verse again: Repeat as many times as needed on acoustic guitar.
E-------------------------------------------
B-------------------------------------------
G----2----2----2----2----2---2----2-----2---
D-------------------------------------------
A--0----0----0----0----0----0----0----0-----
E-------------------------------------------

Outro: Guitar 2 Electric
E--------------------------------------
B--------------------------------------
G-------5-7-5--------------------------
D---7-7-5-7-5-5-7-7--------------------
A---7-7-3-5-3-5-7-7--------------------
E---5-5-------3-5-5--------------------
|
|Outro lead: Guitar 3: ????
E--------------------------------------
B--------------------------------------
G--------------------------------------
D--------------------------------------
A--------------------------------------
E--------------------------------------


Текст, аккорды и табулатура для песни "Weeping Widow", исполняет "April Wine".
Используемые в песне аккорды можно найти в разделе Как брать аккорды. Аккорды для шестиструнной гитары. Другие песни можно найти на нашем сайте, воспользовавшись алфавитным указателем вверху страницы.


 
Ошибка в тексте? Выделите ошибку и нажмите Ctrl+Enter