Standard Tuning

Intro
e|-00-x-000-x-0-------------------------------------------------------------
B|-11-x-111-x-1-------------------------------------------------------------
G|-22-x-222-x-2-------------------------------------------------------------
D|-22-x-222-x-2-55-x-555-x-53-----------------------------------------------
A|--------------55-x-353-x-53-----------------------------------------------
E|--------------33-x-333-x-31-----------------------------------------------

Verse
e|--------------------------------------------------------------------------
B|--------------------------------------------------------------------------
G|--------------------------------------------------------------------------
D|-5--77777777/55555555/33333333-55-x-77--77777777/55555555/33333333--------
A|-35/77777777/55555555/33333333-33-x-55--77777777/55555555/33333333--------
E|--3/55555555/33333333/11111111----------55555555/33333333/11111111--------

e|--------------------------------------------------------------------------
B|--------------------------------------------------------------------------
G|--------------------------------------------------------------------------
D|-5555/7777--77777777/55555555/33333333-55-x-77-77777777/55555555/33333333-
A|-3333/5555--77777777/55555555/33333333-33-x-55-77777777/55555555/33333333-
E|------------55555555/33333333/11111111---------55555555/33333333/11111111-


Verse 2
e|--------------------------------------------------------------------------
B|--------------------------------------------------------------------------
G|---------------5---------------------------------------2-------------5----
D|-7----55/7/5/7/5--1212/10/10/5----55/77/99/10----------2----55/7/5/7/5----
A|-7----55/7/5/7/3--1010/8/10/-5----33/55/77/8--030305070-----33/5/3/5/3----
E|-5----33/5/3/5------------8/-3--------------------------------------------

e|--------------------------------------------------------------------------
B|--------------------------------------------------------------------------
G|--------------------------------------------------------------------------
D|-55/77/9/10--33333333-----------------------------------------------------
A|-33/55/7/8---11111111-----------------------------------------------------
E|--------------------------------------------------------------------------


Bridge
e|--------------------------------------------------------------------------
B|--------------------------------------------------------------------------
G|--------------------------------------------------------------------------
D|-7/9/10/12/1414/-7/9/10/12/1414--12/10/9/7/9x7--10/9/7/5/7/5/4--7-5-3-----
A|-7/9/10/12/1414/-7/9/10/12/1414--10/-8/7/5/7x5---8/7/5/3/5/3/2--7-5-3-----
E|-5/7/8/10/1212/--5/7/-8/10/1212---------------------------------5-3-1-----

e|--------------------------------------------------------------------------
B|--------------------------------------------------------------------------
G|--------------------------------------------------------------------------
D|-77777777-55555555-33333333-----------------------------------------------
A|-77777777-55555555-33333333-----------------------------------------------
E|-55555555-33333333-11111111-----------------------------------------------


Solo
e|--------------------------------------------------------------------------
B|-5---5---5---5---5---5---5---5-----8-6-5-6-8-3-1-0-1-3-5-5-5--5-5-5-------
G|-7br-7br-7br-7br-7br-7br-7br-7br--5-5-5-5-5-0-0-0-0-0--7b7b7b-7b7b7b------
D|--------------------------------------------------------------------------
A|--------------------------------------------------------------------------
E|--------------------------------------------------------------------------


e|-----------------------------7-8p7-8p7--8p7--8p7--5-5-7-3-1-1-0-0---------
B|-5-5-5--8br-8br-8br-8br-8br------8----8----8----8-------------------------
G|-7b7b7b-------------------------------------------------------------------
D|--------------------------------------------------------------------------
A|--------------------------------------------------------------------------
E|--------------------------------------------------------------------------

e|--------------------------------------------------------------------------
B|--------------------------------------------------------------------------
G|--------------------------------------------------------------------------
D|-(7p5-7p5-7p5-7p5-5p3-5p3-5p3-5p3-3p2-3p2-3p2-3p2-3p2)-x2-----------------
A|--------------------------------------------------------------------------
E|--------------------------------------------------------------------------


Outro
e|--------------------------------------------------------------------------
B|--------------------------------------------------------------------------
G|--------------------------------------------------------------------------
D|-77777777-55555555-33333333------77x777x775x555x3-------------------------
A|-77777777-55555555-33333333-(x3)-77x777x775x555x3-------------------------
E|-55555555-33333333-11111111------55x555x553x333x1-------------------------

Order:
Intro
Verse
Verse 2
Bridge
Verse
Verse 2
Solo
Outro


Текст, аккорды и табулатура для песни "When You Dont Control Your Government People Want To Kill You", исполняет "Anti-flag".
Используемые в песне аккорды можно найти в разделе Как брать аккорды. Аккорды для шестиструнной гитары. Другие песни можно найти на нашем сайте, воспользовавшись алфавитным указателем вверху страницы.


 
Ошибка в тексте? Выделите ошибку и нажмите Ctrl+Enter