INTRO
   B    F    G#   E  F#
e|------2222-4444----22---------------------------------------------
B|-4444-2222-4444----22---------------------------------------------
G|-4444-3333-5555-11-33---------------------------------------------
D|-4444-4444-6666-22-44---------------------------------------------
A|-2222-4444-6666-22-44---------------------------------------------
E|------2222-4444-00-22---------------------------------------------

   B    F#   E     D# B    F#          E    E/D#
e|------------------------------------------------------------------
B|------------------------------------------------------------------
G|-4444------99999988------11-11-11-11-9999999----------------------
D|-4444-4444-99999988-4444-11-11-11-11-9999999----------------------
A|-2222-4444-77777766-4444-9--9--9--9--7777766----------------------
E|------2222-000000---2222-------------00000------------------------

VERSE 6x
   B  F#    E  B
e|------------------------------------------------------------------
B|------------------------------------------------------------------
G|----11-11----44---------------------------------------------------
D|-99-11-11-22-44---------------------------------------------------
A|-99-9--9--22-22---------------------------------------------------
E|-77-------00------------------------------------------------------

PRE-CHORUS
   G#m      B        G#m      F#
e|-4--------7--------4--------22222222-------------------------------
B|-4---4----7---7----4---4----22222222-------------------------------
G|-5----5---8----8---5----5---33333333-------------------------------
D|-6-----6--9-----9--6-----6--44444444-------------------------------
A|-6------6-9------9-6------6-44444444-------------------------------
E|-4--------7--------4--------22222222-------------------------------

CHORUS
   B        F#       G#       E    F#
e|-------------------44444444-----------------------------------------
B|-------------------44444444-----------------------------------------
G|-44444444----------55555555-----------------------------------------
D|-44444444-44444444-66666666-2222-4444-------------------------------
A|-22222222-44444444-66666666-2222-4444-------------------------------
E|----------22222222-44444444-0000-2222-------------------------------

VERSE 4x
PRE-CHORUS
CHORUS

BRIDGE
   E    E/D# B    F#
e|-------------------------------------------------------------------
B|-------------------------------------------------------------------
G|-9999-9999------11-11-11-11----------------------------------------
D|-9999-9999-9999-11-11-11-11--[3x(3rd PM)]--------------------------
A|-7777-6666-9999-9--9--9--9-----------------------------------------
E|-----------7777----------------------------------------------------
   E    E/D# B    F#
e|-------------------------------------------------------------------
B|-------------------------------------------------------------------
G|-9999-9999---------------------------------------------------------
D|-9999-9999-9999-44444444-------------------------------------------
A|-7777-6666-9999-44444444-------------------------------------------
E|-----------7777-22222222-------------------------------------------
   |____________|
        PM
   C#    B  A# F#
e|-------------------------------------------------------------------
B|-------------------------------------------------------------------
G|-------------------------------------------------------------------
D|-11-11-99-88-44--[12x (12th PM)]-----------------------------------
A|-11-11-99-88-44----------------------------------------------------
E|-9--9--77-66-22----------------------------------------------------

CHORUS


Текст, аккорды и табулатура для песни "Watch The Right", исполняет "Anti-flag".
Используемые в песне аккорды можно найти в разделе Как брать аккорды. Аккорды для шестиструнной гитары. Другие песни можно найти на нашем сайте, воспользовавшись алфавитным указателем вверху страницы.


 
Ошибка в тексте? Выделите ошибку и нажмите Ctrl+Enter