Anti-flag
Underground network

Tuning:Drop A to G

Intro
E------------------------------------------------------------
B------------------------------------------------------------
G-------77-66--------77-66------------77-66--------77-99-----a few times
D----99-----------99---------------99-----------99-----------
A-------------------------------00-----------00--------------
E-77----------77---------------------------------------------
Verse
E---2----3-3-------------------------------------------------
B-----3--0---3-----------------------------------------------
G-4------0---------------------------------------------------
D-4------0---------------------------------------------------
A-4------2---------------------------------------------------
E--------3---------------------------------------------------
But some where in the night...
E------------------------------------------------------------
B----------33-22---------33-55-------------------------------
G-44444-44------------44-------------------------------------
D-44444------------------------------------------------------
A-44444------------------------------------------------------
E----------------33333---------------------------------------
Chorus
e------------------------------------------------------------
B------------------------------------------------------------
G--4-------------4-------------4-------------4---------------
D--4---5---4-----4---5---4-----4---5---4-----4---5---4-------
A--2---5---4-----2---5---4-----2---5---4-----2---5---4-------
E------3---2---------3---2---------3---2---------3---2-------
Take a look around the world... (all palm muted)
E------------------------------------------------------------
B------------------------------------------------------------
G-------77-66--------77-66------------77-66--------77-99-----a few times
D----99-----------99---------------99-----------99-----------
A-------------------------------00-----------00--------------
E-77----------77---------------------------------------------
Solo:
e------------------------------------------------------------
B--7---------7---7----7----7----7---------------------------
G-10b------10b--10b--10b--10b--10b--------------------------
D-----------------------------------------------------------
A-----------------------------------------------------------
E-----------------------------------------------------------

e----------------------------------------------------------------------
B------------------------------7----7----7-------10-----7---7----7----- 
G----11-7-9-6-7-9-7-6-9-7-6-------7----7----7-------11--7------7-------
D--9-------------------------------------------------------------------
A----------------------------------------------------------------------
E----------------------------------------------------------------------

 
e----------------------------------------------------------------------
B--12-------------------12------------------------------------12------- 
G-----11------11----11--------7--9-------------------------------------
D--------12-----12------------------11--9-----------9------------------ 
A----------------------------------------------------------------------
E----------------------------------------------------------------------

Ending solo thing:
e---------------------------------------------------------------7----9-10
B-7----------------8-7---------------7-----------------8-7-10-8---10----
G---7-6-7-9-7-6--------9-7-9-7-6-7-----7-6-7-9-7-6----------------------
D---------------7-----------------------------------7-------------------
A-----------------------------------------------------------------------
E-----------------------------------------------------------------------

Thats it. Rate Dammit!


Текст, аккорды и табулатура для песни "Underground Network", исполняет "Anti-flag".
Используемые в песне аккорды можно найти в разделе Как брать аккорды. Аккорды для шестиструнной гитары. Другие песни можно найти на нашем сайте, воспользовавшись алфавитным указателем вверху страницы.


 
Ошибка в тексте? Выделите ошибку и нажмите Ctrl+Enter