Anti-Flag – Tearing Down The Borders

....=Palm Mute
~=let ring


Intro1: 1x
Guitar1
E----------------------------------------------------------------------------
H—5-5----------------5-5----------------5-5-------------5-5------------------
G--------5-5-4-4-0-0------5-5-4-4-0-0------5-5-4-4-0-0------5-5-7-7-4-4------
D----------------------------------------------------------------------------
A----------------------------------------------------------------------------
E----------------------------------------------------------------------------

Guitar2
E----------------------------------------------------------------------------
H----------------------------------------------------------------------------
G----------------------------------------------------------------------------
D----------------------------------------------------------------------------
A----------------------------------------------------------------------------
E----------------------------------------------------------------------------

Intro2: 4x
Guitar1
E----------------------------------------------------------------------------
H—5-5----------------5-5----------------5-5-------------5-5------------------
G--------5-5-4-4-0-0------5-5-4-4-0-0------5-5-4-4-0-0------5-5-7-7-4-4------
D----------------------------------------------------------------------------
A----------------------------------------------------------------------------
E----------------------------------------------------------------------------

Guitar2
E----------------------------------------------------------------------------
H----------------------------------------------------------------------------
G-------------------------------------------5--------------------------------
D---2-------------------5-------------------5-------------------7------9-----
A---2-------------------5-------------------3-------------------7------9-----
E---0-------------------3---------------------------------------5------7-----

Verse1:
Guitar1,2
E----------------------------------------------------------------------------
H----------------------------------------------------------------------------
G-----------------------5-5-5-5----------------------------------------------
D---2-2-2-2---5-5-5-5---5-5-5-5---7-7---9-9----------------------------------
A---2-2-2-2---5-5-5-5---3-3-3-3---7-7---9-9----------------------------------
E---0-0-0-0---3-3-3-3-------------5-5---7-7----------------------------------
...........................................

Guitar1,2
E----------------------------------------------------------------------------
H----------------------------------------------------------------------------
G-----------------------5----------------------------------------------------
D---2-2-2-2---5-5-5-5---5----------------------------------------------------
A---2-2-2-2---5-5-5-5---3----------------------------------------------------
E---0-0-0-0---3-3-3-3--------------------------------------------------------
.........................
Guitar1,2
E----------------------------------------------------------------------------
H----------------------------------------------------------------------------
G-----------------------5-5-5-5----------------------------------------------
D---2-2-2-2---5-5-5-5---5-5-5-5---7-7---9-9----------------------------------
A---2-2-2-2---5-5-5-5---3-3-3-3---7-7---9-9----------------------------------
E---0-0-0-0---3-3-3-3-------------5-5---7-7----------------------------------

Guitar1,2
E----------------------------------------------------------------------------
H----------------------------------------------------------------------------
G-----------------------5-5-5-5----------------------------------------------
D---2-2-2-2---5-5-5-5---5-5-5-5---7-7---9-9----------------------------------
A---2-2-2-2---5-5-5-5---3-3-3-3---7-7---9-9----------------------------------
E---0-0-0-0---3-3-3-3-------------5-5---7-7----------------------------------
.....................

Chorus: 2x
Guitar1,2
E----------------------------------------------------------------------------
H----------------------------------------------------------------------------
G---9-9-9-9-9-9-9-9--------------------5-5-5-5-------------------------------
D---9-9-9-9-9-9-9-9---5-5-5-5-5-5-5-5--5-5-5-5---7-7---9-9---2-2-2-2-2-2-2-2-
A---7-7-7-7-7-7-7-7---5-5-5-5-5-5-5-5--3-3-3-3---7-7---9-9---2-2-2-2-2-2-2-2-
E---------------------3-3-3-3-3-3-3-3------------5-5---7-7---0-0-0-0-0-0-0-0-

Intro2: 2x
Guitar1
E----------------------------------------------------------------------------
H—5-5----------------5-5----------------5-5-------------5-5------------------
G--------5-5-4-4-0-0------5-5-4-4-0-0------5-5-4-4-0-0------5-5-7-7-4-4------
D----------------------------------------------------------------------------
A----------------------------------------------------------------------------
E----------------------------------------------------------------------------

Guitar2
E----------------------------------------------------------------------------
H----------------------------------------------------------------------------
G-------------------------------------------5--------------------------------
D---2-------------------5-------------------5-------------------7------9-----
A---2-------------------5-------------------3-------------------7------9-----
E---0-------------------3---------------------------------------5------7-----

Verse2:
Guitar1
E----------------------------------------------------------------------------
H---5-3—5-3—5-3—5-3—5-3—5-3—5-3-5-3—5-3—5-3—5-3—5-3—5-3—5-3------------------
G----------------------------------------------------------------------------
D----------------------------------------------------------------------------
A----------------------------------------------------------------------------
E----------------------------------------------------------------------------


Guitar2
E----------------------------------------------------------------------------
H----------------------------------------------------------------------------
G----------------------------------------------------------------------------
D----------------------------------------------------------------------------
A----------------------------------------------------------------------------
E----------------------------------------------------------------------------

Guitar1,2
E----------------------------------------------------------------------------
H----------------------------------------------------------------------------
G-----------------------5-5-5-5----------------------------------------------
D---2-2-2-2---5-5-5-5---5-5-5-5---7-7---9-9----------------------------------
A---2-2-2-2---5-5-5-5---3-3-3-3---7-7---9-9----------------------------------
E---0-0-0-0---3-3-3-3-------------5-5---7-7----------------------------------

Guitar1,2
E----------------------------------------------------------------------------
H----------------------------------------------------------------------------
G-----------------------5-5-5-5----------------------------------------------
D---2-2-2-2---5-5-5-5---5-5-5-5---7-7---9-9----------------------------------
A---2-2-2-2---5-5-5-5---3-3-3-3---7-7---9-9----------------------------------
E---0-0-0-0---3-3-3-3-------------5-5---7-7----------------------------------
.....................

Chorus:
Guitar1,2
E----------------------------------------------------------------------------
H----------------------------------------------------------------------------
G---9-9-9-9-9-9-9-9--------------------5-5-5-5-------------------------------
D---9-9-9-9-9-9-9-9---5-5-5-5-5-5-5-5--5-5-5-5---7-7---9-9---2-2-2-2-2-2-2-2-
A---7-7-7-7-7-7-7-7---5-5-5-5-5-5-5-5--3-3-3-3---7-7---9-9---2-2-2-2-2-2-2-2-
E---------------------3-3-3-3-3-3-3-3------------5-5---7-7---0-0-0-0-0-0-0-0-

Guitar1,2
E----------------------------------------------------------------------------
H----------------------------------------------------------------------------
G---9-9-9-9-9-9-9-9--------------------5-5-5-5-------------------------------
D---9-9-9-9-9-9-9-9---5-5-5-5-5-5-5-5--5-5-5-5---7-7---9-9-------------------
A---7-7-7-7-7-7-7-7---5-5-5-5-5-5-5-5--3-3-3-3---7-7---9-9-------------------
E---------------------3-3-3-3-3-3-3-3------------5-5---7-7-------------------

Bridge1: 2x
Guitar1,2
E----------------------------------------------------------------------------
H----------------------------------------------------------------------------
G----------------------------------------------------------------------------
D---10-10-10-10---7-7-7-7---2-2-2-2-2-2-2-2----------------------------------
A---10-10-10-10---7-7-7-7---2-2-2-2-2-2-2-2----------------------------------
E----8--8--8--8---5-5-5-5---0-0-0-0-0-0-0-0----------------------------------
       ........     .....     .............


Bridge2: 2x
Guitar1,2
E----------------------------------------------------------------------------
H----------------------------------------------------------------------------
G----------------------------------------------------------------------------
D---10-10-10-10---12-12---7-7---2-2-2-2-2-2-2-2------------------------------
A---10-10-10-10---12-12---7-7---2-2-2-2-2-2-2-2------------------------------
E----8--8--8--8---10-10---5-5---0-0-0-0-0-0-0-0------------------------------
       ........                   ...........

Bridge3:
Guitar1,2
E----------------------------------------------------------------------------
H----------------------------------------------------------------------------
G---9 ~ ------------9--------------------------------------------------------
D---9 ~ ----------------9--------6-------------------------------------------
A---7 ~ ----------------------------------7----------------------------------
E----------------------------------------------------------------------------

Guitar1,2
E----------------------------------------------------------------------------
H----------------------------------------------------------------------------
G--------------------------------------5-5-5-5-------------------------------
D---2-2-2-2-2-2-2-2---5-5-5-5-5-5-5-5--5-5-5-5---7-7---9-9---2-2-2-2-2-2-2-2-
A---2-2-2-2-2-2-2-2---5-5-5-5-5-5-5-5--3-3-3-3---7-7---9-9---2-2-2-2-2-2-2-2-
E---0-0-0-0-0-0-0-0---3-3-3-3-3-3-3-3------------5-5---7-7---0-0-0-0-0-0-0-0-
.............................................................................

Guitar1,2
E----------------------------------------------------------------------------
H----------------------------------------------------------------------------
G--------------------------------------5-5-5-5-------------------------------
D---2-2-2-2-2-2-2-2---5-5-5-5-5-5-5-5--5-5-5-5---7-7---9-9---2-2-2-2-2-2-2-2-
A---2-2-2-2-2-2-2-2---5-5-5-5-5-5-5-5--3-3-3-3---7-7---9-9---2-2-2-2-2-2-2-2-
E---0-0-0-0-0-0-0-0---3-3-3-3-3-3-3-3------------5-5---7-7---0-0-0-0-0-0-0-0-
.....................................

Chorus:
Guitar1,2
E----------------------------------------------------------------------------
H----------------------------------------------------------------------------
G---9-9-9-9-9-9-9-9--------------------5-5-5-5-------------------------------
D---9-9-9-9-9-9-9-9---5-5-5-5-5-5-5-5--5-5-5-5---7-7---9-9---2-2-2-2-2-2-2-2-
A---7-7-7-7-7-7-7-7---5-5-5-5-5-5-5-5--3-3-3-3---7-7---9-9---2-2-2-2-2-2-2-2-
E---------------------3-3-3-3-3-3-3-3------------5-5---7-7---0-0-0-0-0-0-0-0-

Guitar1,2
E----------------------------------------------------------------------------
H----------------------------------------------------------------------------
G---9-9-9-9-9-9-9-9--------------------5-5-5-5-------------------------------
D---9-9-9-9-9-9-9-9---5-5-5-5-5-5-5-5--5-5-5-5---7-7---9-9-------------------
A---7-7-7-7-7-7-7-7---5-5-5-5-5-5-5-5--3-3-3-3---7-7---9-9-------------------
E---------------------3-3-3-3-3-3-3-3------------5-5---7-7-------------------

Guitar1,2
E----------------------------------------------------------------------------
H----------------------------------------------------------------------------
G---5-5-5-5----------------5-5-5-5-------------------------------------------
D---5-5-5-5---7-7---9-9----5-5-5-5---7-7---9-9---2-2-2-2-2-2-2-2-------------
A---3-3-3-3---7-7---9-9----3-3-3-3---7-7---9-9---2-2-2-2-2-2-2-2-------------
E-------------5-5---7-7--------------5-5---7-7---0-0-0-0-0-0-0-0-------------




This is my first Tab but i think itґs 100% correct. listen to the song the get
out where the pickslides are. if you want to send me corrections: [email protected]


Текст, аккорды и табулатура для песни "Tearing Down The Borders", исполняет "Anti-flag".
Используемые в песне аккорды можно найти в разделе Как брать аккорды. Аккорды для шестиструнной гитары. Другие песни можно найти на нашем сайте, воспользовавшись алфавитным указателем вверху страницы.


 
Ошибка в тексте? Выделите ошибку и нажмите Ctrl+Enter