Author/Artist: Anti-Flag 
Title: Seattle was a Riot 
Album: Fat Music vol 5: Live Fat Die Young 
Transcribed by: Derek Lapp 
Email: [email protected] 

[email protected]------------- 
-11-11----11-14---------9---------7-6-6-4-6---11----13--11---13--11---------3- 
-------10---------------------------------------10----10--10---10--10---11---- 
------------------------------------------------------------------------------ 
------------------------------------------------------------------------------ 
------------------------------------------------------------------------------ 
 Chords: (During Intro)                       2nd half of intro starts here    

------------------------------------------------------------------------------ 
------------------------------------------------------------------------------ 
------------------------------------------------------------------------------ 
-8--------------11-------------6--------------4-3-8--------------------------- 
-8--------------11-------------6--------------4-3-8--------------------------- 
-6-xxxxxxxxxxxx-9-xxxxxxxxxxxx-4-xxxxxxxxxxxx-2-1-6--------------------------- 
 Verse:                                                                        

------------------------------------------------------------------------------ 
------------------------------------------------------------------------------ 
---------------------6-------------------------------------------------------- 
--8--------------4---6-------------------------------------------------------- 
--8--------------4---4-------------------------------------------------------- 
--6-xxxxxxxxxxxx-2---4-------------------------------------------------------- 
 Course:                                                                       

------------------------------------------------------------------------------ 
------------------------------------------------------------------------------ 
-------------------6------10--13-8-------------------------------------------- 
--8---11--5----4-3-6-6---8--11--6--4----------8------------------------------- 
--8---11--6----4-3-4-6---8--11--6--4----------8------------------------------- 
--6---9---4----2-1---4---6--9---4--2-xxxxxxxx-6-----------------------------x- 
                                                  back to snd half of intro    

------------------------------------------------------------------------------ 
------------------------------------------------------------------------------ 
-------------6-----------6-10-8-10-------------------------------------------- 
-----8-8-8-4-6-----8-8-8-6-10-8-10-------------------------------------------- 
-----8-8-8-4-4-----8-8-8-4-8--6-8--------------------------------------------- 
-xxx-6-6-6-2---xxx-6-6-6------------------------------------------------------ 
 ending                                                                        




Текст, аккорды и табулатура для песни "Seattle Was A Riot", исполняет "Anti-flag".
Используемые в песне аккорды можно найти в разделе Как брать аккорды. Аккорды для шестиструнной гитары. Другие песни можно найти на нашем сайте, воспользовавшись алфавитным указателем вверху страницы.


 
Ошибка в тексте? Выделите ошибку и нажмите Ctrl+Enter