Anti-Flag
Outbreak
Tabbed by: [email protected]

this is tabbed in normal antiflag tuning (half step down). if you're
regular tuning, just play everything one fret lower than what it says
on this tab

Intro/Outro:
Gb-----------------------------------------
Db-----------5-5-5-5-5-----------5-5-5-5-5-
Ab-7-7-7-7-7-----------7-7-7-7-7-----------
Eb-----------------------------------------

Gb-----------------------------------------------7-7-9-9-11-11-
Db-------5-5-5-------5-5-5-----5-5-7-7-9-9-10-10---------------
Ab-7-7-7-------7-7-7-------7-7---------------------------------
Eb-------------------------------------------------------------

Verse:
Gb-----------------------------
Db---------------------3-3-5-5-  (3x)
Ab-7-7-7-7-7-7-----5-5---------
Eb-------------3-3-------------

then

Gb---------------------
Db---------------------
Ab-5-5-5-5-5-5-5-5-5-5-
Eb---------------------

Chorus:
Gb-------------------------------7-7-7-------
Db-------------------------------------7-7-7-
Ab---------------------5-5-5-5-5-------------
Eb-7-7-7-7-7-3-3-3-3-3-----------------------

Gb-------------------------------------------
Db-------------------------------------7-7-7-
Ab-------------------------------7-7-7-------
Eb-7-7-7-7-7-3-3-3-3-3-5-5-5-5-5-------------

Gb-------------------------------7-7-7-------
Db-------------------------------------7-7-7-
Ab---------------------5-5-5-5-5-------------
Eb-7-7-7-7-7-3-3-3-3-3-----------------------

Gb---------------------------------------
Db---------------------------------------
Ab---------------------------------------
Eb-7-7-7-7-7-3-3-3-3-3-5-5-5-5-5-5-5-5-5-


Текст, аккорды и табулатура для песни "Outbreak", исполняет "Anti-flag".
Используемые в песне аккорды можно найти в разделе Как брать аккорды. Аккорды для шестиструнной гитары. Другие песни можно найти на нашем сайте, воспользовавшись алфавитным указателем вверху страницы.


 
Ошибка в тексте? Выделите ошибку и нажмите Ctrl+Enter