Artist:  Anti Flag
Song:  No Apology
Album:  A New Kind of Army
Tabbed by:  Rick  (rickrack97)
AIM:  rickrack97


Chords:

C#5  (x466xx)
E5   (x799xx)
A5   (577xxx)
G#5  (466xxx)
B5   (799xxx)

Intro:

E|------------------------------------------------------------|
B|------------------------------------------------------------|
G|--6-6-6-------9-9-9-9-9-9-9-9--6-6-6-------9-9-9-9----------|
D|--6-6-6-7-7-7-9-9-9-9-9-9-9-9--6-6-6-7-7-7-9-9-9-9-9-9-9-9--|
A|--4-4-4-7-7-7-7-7-7-7-7-7-7-7--4-4-4-7-7-7-7-7-7-7-9-9-9-9--|
E|--------5-5-5------------------------5-5-5---------7-7-7-7--|
cont.
E|------------------------------------------------------------|
B|------------------------------------------------------------|
G|--6-6-6-------9-9-9-9-9-9-9-9---6-6-6--------9--S-----------|
D|--6-6-6-7-7-7-9-9-9-9-9-9-9-9---6-6-6-7-7-7--9--T-----------|
A|--4-4-4-7-7-7-7-7-7-7-7-7-7-7---4-4-4-7-7-7--7--O-----------|
E|--------5-5-5-------------------------5-5-5-----P-----------|


Verse:

E|-------------------|--------------------|
B|-------------------|--------------------|
G|-6-6---6-6-6-6-6-6-|--------------------|
D|-6-6---6-6-6-6-6-6-|-------7-7-6-6------|
A|-4-4---4-4-4-4-4-4-|---4-4---------7-7--|
E|-------------------|--------------------|
         |----------|
          palm mute
cont.
E|------------------------------------------------------------|
B|------------------------------------------------------------|
G|--9-9-9-9-9-9-9-9------------------6-6---6-6-6-6-6-6--------|
D|--9-9-9-9-9-9-9-9-9-9-9-9-9-9-9-9--6-6---6-6-6-6-6-6--------|
A|--7-7-7-7-7-7-7-7-9-9-9-9-9-9-9-9--4-4---4-4-4-4-4-4--------|
E|------------------7-7-7-7-7-7-7-7---------------------------|
                                           |----------|
                                            palm mute

The second time you play the verse there is no palm muting of the C#5 chord.

Chorus:

E|------------------------------------------------------------------|
B|------------------------------------------------------------------|
G|-9-9-9-9-9-9-9-9-----------------9-9-9-9-9-9-9-9------------------|
D|-9-9-9-9-9-9-9-9-9-9-9-9-9-9-9-9-9-9-9-9-9-9-9-9-9-9-9-9-9-9-9-9--|
A|-7-7-7-7-7-7-7-7-9-9-9-9-9-9-9-9-7-7-7-7-7-7-7-7-9-9-9-9-9-9-9-9--|
E|-----------------7-7-7-7-7-7-7-7-----------------7-7-7-7-7-7-7-7--|
cont.
E|---------------------------------------------------------------|
B|---------------------------------------------------------------|
G|-9-9-9-9-9-9-9-9------------------6-6-6-------9-9-9-9-9-9-9-9--|
D|-9-9-9-9-9-9-9-9-9-9-9-9-9-9-9-9--6-6-6-7-7-7-9-9-9-9-9-9-9-9--|
A|-7-7-7-7-7-7-7-7-9-9-9-9-9-9-9-9--4-4-4-7-7-7-7-7-7-7-7-7-7-7--|
E|-----------------7-7-7-7-7-7-7-7--------5-5-5------------------|
The rest of the chorus is easy to figure out.

Bridge:

E|------------------------------------------------------------------|
B|------------------------------------------------------------------|
G|-----------------6-6-6-6-6-6-6-6----------------------------------|
D|-9-9-9-9-9-9-9-9-6-6-6-6-6-6-6-6-7-7-7-7-7-7-7-7-6-6-6-6-6-6-6-6--|
A|-9-9-9-9-9-9-9-9-4-4-4-4-4-4-4-4-7-7-7-7-7-7-7-7-6-6-6-6-6-6-6-6--|
E|-7-7-7-7-7-7-7-7-----------------5-5-5-5-5-5-5-5-4-4-4-4-4-4-4-4--|
cont.
E|------------------------------------------------------------|
B|------------------------------------------------------------|
G|------------------------------------------------------------|
D|-9--9-9---9-9-9----9--9-9----9-9-9----9--9-9---9-9-9--------|
A|-9--9-9---9-9-9----9--9-9----9-9-9----9--9-9---9-9-9--------|
E|-7--7-7---7-7-7----7--7-7----7-7-7----7--7-7---7-7-7--------|
            |---|              |---|             |---|
             pm                 pm                pm

Ending:

E|------------------------------------------------------------------|
B|------------------------------------------------------------------|
G|-6-6-6-6-6-6-6-6---------------------------------9-9-9-9-9-9-9-9--|
D|-6-6-6-6-6-6-6-6-7-7-7-7-7-7-7-7-6-6-6-6-6-6-6-6-9-9-9-9-9-9-9-9--|
A|-4-4-4-4-4-4-4-4-7-7-7-7-7-7-7-7-6-6-6-6-6-6-6-6-7-7-7-7-7-7-7-7--|
E|-----------------5-5-5-5-5-5-5-5-4-4-4-4-4-4-4-4------------------|



The song ends on an E5 chord and you're done.  Fun stuff that Anti-Flag.  Later.


Текст, аккорды и табулатура для песни "No Apology", исполняет "Anti-flag".
Используемые в песне аккорды можно найти в разделе Как брать аккорды. Аккорды для шестиструнной гитары. Другие песни можно найти на нашем сайте, воспользовавшись алфавитным указателем вверху страницы.


 
Ошибка в тексте? Выделите ошибку и нажмите Ctrl+Enter