Anti-Flag
Indie sux, hardline sux, emo sux, you suck!
Tabbed by: [email protected]

this is tabbed in normal antiflag tuning (half step down). if you're
regular tuning, just play everything one fret lower than what it says
on this tab

Intro:
Gb-----------------------------------------------------------
Db-----------------------------------------------------------
Ab---------------------7-7-7-7-7-7-7-7-7-7-------------------
Eb-7-7-7-7-7-7-7-7-7-7---------------------------------------

Verse:
Gb------------------------------------
Db-------------------9-7-9---9-7-9----
Ab---9-7-----9-7---7-------7----------
Eb-7-----9-7-----9--------------------

Prechorus:
Gb---------------------------------
Db---------------------------------
Ab-4-4-4-4-4-4-4-4-7-7-7-7-7-7-7-7-
Eb---------------------------------

Chorus:
Gb-----------------------------------------------------------------
Db-----------------------------------------------------------------
Ab-----------------7-7-7-7-7-7-7-7-4-4-4-4-4-4-4-4-7-7-7-7-7-7-7-7-
Eb-7-7-7-7-7-7-7-7-------------------------------------------------

Pre2ndverse:
Gb---------------------------------
Db-------------------9-7-9---9-7---
Ab-----------------7-------7-----9-
Eb-7-7-7-7-7-7-7-7-----------------

Bridge or whatever:			 High note on the bridge:
Gb-----------------------------------	 G----
Db-----------------------------------    D-14-
Ab-----------------7-7-7-7-7-7-7-7-4-    A----
Eb-7-7-7-7-7-7-7-7-------------------    E----


Текст, аккорды и табулатура для песни "Indie Sux Hardline Sux Emo Sux You Suck", исполняет "Anti-flag".
Используемые в песне аккорды можно найти в разделе Как брать аккорды. Аккорды для шестиструнной гитары. Другие песни можно найти на нашем сайте, воспользовавшись алфавитным указателем вверху страницы.


 
Ошибка в тексте? Выделите ошибку и нажмите Ctrl+Enter