Anti Flag
Got the numbers

Intro:
E|---------------------------------
B|---------------------------------
G|------------4----------4-44-4----
D|-6------66-----6--6----4-44-4-6--
A|-6------66--------6----2-22-2-6--
E|-4------44--------4-----------4-- pick slide
                         P PP P

Pre-Verse Riff x4:
E|----7-4------7-4---
B|--------4--------4-
G|----------4--------
D|-6-----------------
A|-------------------
E|-------------------

e|-------------------
b|-------------------
g|----------4--4-4-4-
d|-6--6-6-6-4--4-4-4-
a|-6--6-6-6-2--2-2-2-
e|-4--4-4-4----------

Verse Riff x4:
E|------------------
B|------------------
G|---------4--4-4-4-
D|-6666666-4--4-4-4-
A|-6666666-2--2-2-2-
E|-4444444----------
   PPPPPPP

Pre-Chorus Riff:
E|-------------------------------
B|-------------------------------
G|-------------------------------
D|-2222222222222222-444444444444-
A|-2222222222222222-444444444444-
E|-0000000000000000-222222222222- pick slide

Chorus:
E|---------------------------------------
B|---------------------------------------
G|-4-44-6-66----------4-44-6-66----------
D|-4-44-6-66-6-66-4-2-4-44-6-66-6-6--6-6-
A|-2-22-4-44-6-66-4-2-2-22-4-44-6-6--6-6-
E|-----------4-44-2-0-----------4-4--4-4-x2

E|-----------------
B|-----------------
G|-4-4-4-4---------
D|-4-4-4-4-6-6-6-6-
A|-2-2-2-2-6-6-6-6-
E|---------4-4-4-4- x3

E|---------
B|---------
G|-4-4-4-4-
D|-4-4-4-4-
A|-2-2-2-2-
E|---------


repeat Pre-Verse Riff x4
repeat Verse Riff x4
repeat Pre-Chorus
repeat Chorus
repeat Intro

Bridge part 1:
E|---
B|---
G|---
D|-6-
A|-6-
E|-4-

Bridge part 2 x4 muting at first but unmuting slowly as you go:
E|----77-44-------77-44----
B|----------44----------44-
G|-------------44----------
D|-66----------------------
A|-------------------------
E|-------------------------

e|-------------------------
b|-------------------------
g|-------------44-44-44-44-
d|-66-66-66-66-44-44-44-44-
a|-66-66-66-66-22-22-22-22-
e|-44-44-44-44-------------

repeat pre-chorus but instead of pick sliding, guitar stops

Then play chorus like this:
E|---------------------------------------
B|---------------------------------------
G|-4-44-6-66----------4-44-6-66----------
D|-4-44-6-66-6-66-4-2-4-44-6-66-6-6--6-6-
A|-2-22-4-44-6-66-4-2-2-22-4-44-6-6--6-6-
E|-----------4-44-2-0-----------4-4--4-4-x4

E|-----------------
B|-----------------
G|-4-4-4-4---------
D|-4-4-4-4-6-6-6-6-
A|-2-2-2-2-6-6-6-6-
E|---------4-4-4-4- x3

E|---------
B|---------
G|-4-4-4-4-
D|-4-4-4-4-
A|-2-2-2-2-
E|---------

repeat pre verse riff
repeat Bridge part 2 without any muting x3

End part:
E|----77-44-----------------
B|----------44--------------
G|-------------44-----------
D|-66----------44--44--6----
A|-------------22--44--6----
E|-----------------22--4----

e|--------------------------
b|--------------------------
g|-------------44-----------
d|-66-66-66-66-44--44--6----
a|-66-66-66-66-22--44--6----
e|-44-44-44-44-----22--4----


Текст, аккорды и табулатура для песни "Got The Numbers", исполняет "Anti-flag".
Используемые в песне аккорды можно найти в разделе Как брать аккорды. Аккорды для шестиструнной гитары. Другие песни можно найти на нашем сайте, воспользовавшись алфавитным указателем вверху страницы.


 
Ошибка в тексте? Выделите ошибку и нажмите Ctrl+Enter