Anti-Flag:
Got The Numbers
tabbed by [email protected]

this is tabbed in normal antiflag tuning (half step down). if you're
regular tuning, just play everything one fret lower than what it says
on this tab

Intro:
Gb-----------------
Db---------5-5-----
Ab-----7-7-----7-7- (7x)
Eb-5-5-------------

then

Gb-----5-5-7-7-9-9-
Db-7-7-------------
Ab-----------------
Eb-----------------

Pre-Verse:
Gb-------------------3-3-5-5-
Db---------------5-5---------
Ab-----------3-3-------------
Eb-5-5-5-5-5-----------------

Verse:
Gb-------------------------
Db---------------5-3-2-0---
Ab-----------3-3---------3-
Eb-5-5-5-5-5---------------

Pre-Chorus Part1:
Gb-------------------------------------------------
Db-------------3-3-3-3-3-3-------------5-5-5-5-5-5-
Ab-------------------------------------------------
Eb-1-1-1-1-1-1-------------3-3-3-3-3-3-------------

Pre-Chorus Part2:
Gb---------------------------------------------
Db---------------------------------------7-7-7-
Ab-3-3-3-5-5-5---------3-3-3-5-5-5-------------
Eb-------------5-3-1-1-------------5-5-5-------

Pre-Chorus Part3:
Gb---------------------------------------------
Db---------------------------------------------
Ab-3-3-3-5-5-5---------3-3-3-5-5-5-------------
Eb-------------5-3-1-1-------------5-5-5-5-5-5-

Chorus:
Gb-------------------------
Db-------------7-7-7-7-7-7-
Ab-3-3-3-3-3-3------------- (3x)
Eb-------------------------

then

Gb------------
Db-10-10-10-9-
Ab------------
Eb------------

Bridge 1:
Gb---
Db-7-
Ab---
Eb---

Bridge 2:
Gb-----------------
Db---------5-5-----
Ab-----7-7-----7-7- (7x)
Eb-5-5-------------

then

Gb-9-9-7-7-5-5-----
Db-------------7-7-
Ab-----------------
Eb-----------------

Pre-Chorus Part4:
Gb---------------------------------------
Db-------------3-3-3-3-3-3-------------5-
Ab---------------------------------------
Eb-1-1-1-1-1-1-------------3-3-3-3-3-3---

Pre-Chorus Part5:
Gb---------------------------------------------
Db---------------------------------------7-7-7-
Ab-3-3-3-5-5-5---------3-3-3-5-5-5---5-5-------
Eb-------------5-3-1-1-------------5-----------

Song Order:
Intro
Pre-Verse
Verse
Pre-Chorus Part1
Pre-Chorus Part2
Pre-Chrous Part3
Chorus
Pre-Verse
Verse
Pre-Chorus Part1
Pre-Chorus Part2
Pre-Chorus Part3
Chorus
Intro
Bridge 1
Bridge 2
Pre-Chorus Part4
Pre-Chours Part2
Pre-Chorus Part5
Pre-Chorus Part2
Pre-Chorus Part3
Chorus
Pre-Verse
Verse


Текст, аккорды и табулатура для песни "Got The Numbers", исполняет "Anti-flag".
Используемые в песне аккорды можно найти в разделе Как брать аккорды. Аккорды для шестиструнной гитары. Другие песни можно найти на нашем сайте, воспользовавшись алфавитным указателем вверху страницы.


 
Ошибка в тексте? Выделите ошибку и нажмите Ctrl+Enter