SONG:  DRINK, DRANK, PUNK
BAND:  ANTI-FLAG
TABBED BY:  DAN HAVOC, BASSIST FOR THE NEUTRALS

INTRO:

  G--------------------------------------------------------------------------------
D-----------------3-4-5-------------------------------------------3-4-5--------       ( x2) A--------------4-------------------------4-3-2-1---------------4--------------4-|
E-4-4-4-4-4--------------4-4-4-4-4---------------4-4-4-4-4---------4-4-4-4-4---

VERSE:
G-----------------R-------------------R------------------R---------------------R
D-----------------E-------------------E-------------------E--------------------E
A--------------4--S---------------4-S---------------4-S-----------------4--S
E-4-4-4-4-4----T-4-4-4-4-4----T-4-4-4-4-4----T-4-4-4-4-4-----T

CHORUS:         ( x3)                     ( x1)
G--------------------------|     G------------------|
D------------------3-4-5-|     D------------------|
A---------------4----------|     A---------------4-|
E-4-4-4-4-4-------------|      E-4-4-4-4-4----|

BRIDGES:
G------------------------------------------------------------|
D------------------------------------------------------------|
A-2-2-2-2-2---4-4-4-4-4-6-6-6-6-6-6-6-6-6-6-|
E------------------------------------------------------------|

THATS IT!


Текст, аккорды и табулатура для песни "Drink Drank Punk", исполняет "Anti-flag".
Используемые в песне аккорды можно найти в разделе Как брать аккорды. Аккорды для шестиструнной гитары. Другие песни можно найти на нашем сайте, воспользовавшись алфавитным указателем вверху страницы.


 
Ошибка в тексте? Выделите ошибку и нажмите Ctrl+Enter