Intro: X2 
e|---------X3---------------|-------------------------------------------------| 
B|--------------------------|-------------------------------------------------| 
G|------8-8--6-6-6-6-6-6-6--|-8-8-8-8-8-8-8-8-8-8-8-8-------------------------| 
D|-6-6--8-8--6-6-6-6-6-6-6--|-8-8-8-8-8-8-8-8-8-8-8-8-------------------------| 
A|-6-6--6-6--4-4-4-4-4-4-4--|-6-6-6-6-6-6-6-6-6-6-6-6-------------------------| 
E|-4-4----------------------|-------------------------------------------------| 

Verse: 
e|---------------------------------------------------------------------------| 
B|---------------------------------------------------------------------------| 
G|---/Mute--8-8-8-8-8-8----/Mute--6-6-6-6-6-6------------------------------| 
D|-6-666666--8-8-8-8-8-8--6-666666--6-6-6-6-6-6------------------------------| 
A|-6-666666--6-6-6-6-6-6--6-666666--4-4-4-4-4-4------------------------------| 
E|-4-444444---------------4-444444-------------------------------------------| 

Verse Part 2: 
e|---------------------------------------------------------------------------| 
B|---------------------------------------------------------------------------| 
G|---/Mute--8-8-8-8-8-8--6-6-6-6-6-6-6-6-6-6-6-6----------------------------| 
D|-6-666666--8-8-8-8-8-8--6-6-6-6-6-6-6-6-6-6-6-6----------------------------| 
A|-6-666666--6-6-6-6-6-6--4-4-4-4-4-4-4-4-4-4-4-4----------------------------| 
E|-4-444444------------------------------------------------------------------| 

Verse 

Verse Part 2 

Pre-Chorus: 
e|---------------------------------------------------------------------------| 
B|---------------------------------------------------------------------------| 
G|-8-------6-----------------------------------------------------------------| 
D|-8-Hold--6-Hold------------------------------------------------------------| 
A|-6-------4-----------------------------------------------------------------| 
E|---------------------------------------------------------------------------| 

Chorus: 
e|---------------------------------------------------------------------------| 
B|---------------------------------------------------------------------------| 
G|----5-5--6-6-6-6---------8-------6-----------------------------------------| 
D|-6--5-5--6-6-6-6--6-6----8-Hold--6-Hold------------------------------------| 
A|-6--3-3--4-4-4-4--6-6----6-------4-----------------------------------------| 
E|-4----------------4-4------------------------------------------------------| 

Intro 1 

Verse 

Verse Part 2 

Verse 

Verse Part 2 

Pre-Chorus 

Chorus 

Intro1 (Pick Slide At The End) 

Bridge: 
e|---------------------------------------------------------------------------| 
B|---------------------------------------------------------------------------| 
G|---------------------------------------------------------------------------| 
D|-10-10-10-10--8--10-10-10-10--8--6-6-6--5--6-6-6--5------------------------| 
A|-10-10-10-10--8--10-10-10-10--8--6-6-6--5--6-6-6--5------------------------| 
E|-8--8--8--8---6--8--8--8--8---6--4-4-4--3--4-4-4--3------------------------| 

e|---------------------------------------------------------------------------| 
B|---------------------------------------------------------------------------| 
G|---------------------------------------------------------------------------| 
D|-10-10-10--8--10-10-10--8--13-13-13--12--13-13-13--12----------------------| 
A|-10-10-10--8--10-10-10--8--13-13-13--12--13-13-13--12----------------------| 
E|-8--8--8---6--8--8--8---6--11-11-11--10--11-11-11--10----------------------| 

e|---------------------------------------------------------------------------| 
B|---------------------------------------------------------------------------| 
G|---------------------------------------------------------------------------| 
D|-10-10-10-10--8--10-10-10-10--8--6-6-6--5--6-6-6--5------------------------| 
A|-10-10-10-10--8--10-10-10-10--8--6-6-6--5--6-6-6--5------------------------| 
E|-8--8--8--8---6--8--8--8--8---6--4-4-4--3--4-4-4--3------------------------| 

e|--------------------------------------------------------------------------| 
B|--------------------------------------------------------------------------| 
G|--------------------------------------------------------------------------| 
D|-10-10-10-10--8--10-10-10-10--8--13-13-13-13-13-13--12-12-12-12-12-12-----| 
A|-10-10-10-10--8--10-10-10-10--8--13-13-13-13-13-13--12-12-12-12-12-12-----| 
E|-8--8--8--8---6--8--8--8--8---6--11-11-11-11-11-11--10-10-10-10-10-10-----| 

Pre-Chorus 

ChorusX3 

IntroX3
 
end on:
E---|
B---|
G---|
D-6-|
A-6-|
E-4-|


Текст, аккорды и табулатура для песни "Born To Die", исполняет "Anti-flag".
Используемые в песне аккорды можно найти в разделе Как брать аккорды. Аккорды для шестиструнной гитары. Другие песни можно найти на нашем сайте, воспользовавшись алфавитным указателем вверху страницы.


 
Ошибка в тексте? Выделите ошибку и нажмите Ctrl+Enter