------------------------------------------------------------------------------
                   A New Kind Of Army (Solo) – Anti-Flag
------------------------------------------------------------------------------



e|-89-99--89-99--89-99—-89-99—-89-99—-12p9----9-------------------------|
B|-89-99—-89-99--89-99--89-99—-89-99-------12---12p9---9----------------|
G|-------------------------------------------------------11---11p9----9-11b--|
D|-----------------------------------------------------------------11--------|
A|---------------------------------------------------------------------------|
E|---------------------------------------------------------------------------|


e|---------------------------------------------------------------------------|
B|------9h12p9--------9h12p9--------9h12p9--------9h12p9--------12-12b-12-9--|
G|-9-----------9h11p9--------9h11p9--------9h11p9--------9h11p9--------------|
D|---11----------------------------------------------------------------------|
A|---------------------------------------------------------------------------|
E|---------------------------------------------------------------------------|

e|------------------------------------------|
B|---------------------9--------------------|
G|-11-9-11p9-------11-----11----------------|
D|-----------11~--------------11~-----------|
A|------------------------------------------|
E|------------------------------------------|

==============================================================================


Текст, аккорды и табулатура для песни "A New Kind Of Army", исполняет "Anti-flag".
Используемые в песне аккорды можно найти в разделе Как брать аккорды. Аккорды для шестиструнной гитары. Другие песни можно найти на нашем сайте, воспользовавшись алфавитным указателем вверху страницы.


 
Ошибка в тексте? Выделите ошибку и нажмите Ctrl+Enter