Tuning: Standard
Tabber guy: Me, Megy Gein 
[email protected]

/ slide
^ bend
X HEAVY palm mute
~let ring

Intro 

----------------------
----------------------
----------------------
-444444444444444444444
-222222222222222222222
----------------------

---------------------------------
---------------------------------
---------------------------------
-44444444444444777777777777777777
-22222222222222555555555555555555
---------------------------------

VERSE

-----------------------------------------
-----------------------------------------
-----------------------------------------
-xxxx4xxxx4xxxx4xxxx4xxxx7xxxx7xxxx7xxxx7
-xxxx2xxxx2xxxx2xxxx2xxxx5xxxx5xxxx5xxxx5
-----------------------------------------

PreChorus

--------------------------------
--------------------------------
--------------------------------
-4-4-4-4-7-7-7-7-4-4-4-4-7-7-7-7
-2-2-2-2-5-5-5-5-2-2-2-2-5-5-5-5
--------------------------------

--------------------------------
--------------------------------
--------------------------------
--------------------------------
-2/^9~---2/^9/8~----------------
-0/^7~---0/^7/6~----------------

Chorus

--------------------------------
--------------------------------
--------------------------------
-44444444/6/7777777777777-------
-22222222/45/555555555555-------
--------------------------------

--------------------------------
--------------------------------
--------------------------------
-444444442~3~-------------------
-222222220~1~-------------------
--------------------------------

Bridge

----------------------------------
----------------------------------
----------------------------------
-4-4-4-4-2-2-2-2------------------
-2-2-2-2-0-0-0-0------------------
----------------------------------

----------------------------------
----------------------------------
----------------------------------
-4xxx4-2xxxx2---------------------
-2xxx2-0xxxx0---------------------
----------------------------------

then there's a solo I'm too lazy to tab but here the song, surprised no one tabbed it yet


Текст, аккорды и табулатура для песни "C11 H17 N2 O2 S Na Sodium Pentathol", исполняет "Anthrax".
Используемые в песне аккорды можно найти в разделе Как брать аккорды. Аккорды для шестиструнной гитары. Другие песни можно найти на нашем сайте, воспользовавшись алфавитным указателем вверху страницы.


 
Ошибка в тексте? Выделите ошибку и нажмите Ctrl+Enter