Annihilator: The Fun Palace

guitar 1
--------------------------------------------------------------------------
--------------------------------------------------------------------------
------------------------------h----------h--------h--------h----h---------
--------4--------4--------4--4-5-4------2-4------2-4------2-4--2-4-2------
--------------------------------------------------------------------------
--0--2-----0--2-----0--2-------------0--------0--------0------------------
  pm-|     pm-|     pm-|             pm       pm       pm

guitar 2
--------------------------------------------------------------------------
--------------------------------------------------------------------------
--------------------------------------------------------------------------
--4----------------------------------2------------------------------------
--4----------------------------------2------------------------------------
--2----------------------------------0------------------------------------

----

guitar 1
----------------------------------------------------------------------------------
----------------------------------------------------------------------------------
------h-------h-------h----h----------h-------h-----------------------------------
-----2-4-----2-4-----2-4--2-4-2------2-4-----2-4-----2----------------------------
--2-------2-------2---------------0-------0-------0-------------------------------
---------------------------------------------------------0--0--0--0--0-0-0--0--0--
  pm      pm      pm              pm      pm      pm     pm--------------------|
guitar 2
----------------------------------------------------------------------------------
----------------------------------------------------------------------------------
--4-------------------------------7-----------------------------------------------
--4-------------------------------7-----------------------------------------------
--2-------------------------------5-----------------------------------------------
----------------------------------5----------------------0--0--0--0--0-0-0--0--0--
                                                         pm--------------------|
----

Now again with another end:

guitar 1
--------------------------------------------------------------------------
--------------------------------------------------------------------------
------------------------------h----------h--------h--------h----h---------
--------4--------4--------4--4-5-4------2-4------2-4------2-4--2-4-2------
--------------------------------------------------------------------------
--0--2-----0--2-----0--2-------------0--------0--------0------------------
  pm-|     pm-|     pm-|             pm       pm       pm

guitar 2
--------------------------------------------------------------------------
--------------------------------------------------------------------------
--------------------------------------------------------------------------
--4----------------------------------2------------------------------------
--4----------------------------------2------------------------------------
--2----------------------------------0------------------------------------

----

guitar 1
--------------------------------------------------------------------------
--------------------------------------------------------------------------
------h-------h-------h----h----------h-------h---------------------------
-----2-4-----2-4-----2-4--2-4-2------2-4-----2-4-------2------------------
--2-------2-------2---------------0-------0---------0---------------------
----------------------------------------------------------2---2---2---2---
  pm      pm      pm              pm      pm        pm    pm----------|

guitar 2
--------------------------------------------------------------------------
--------------------------------------------------------------------------
--4-------------------------------7---------------------------------------
--4-------------------------------7--------------------2------------------
--2-------------------------------5-----------------0---------------------
----------------------------------5-----------------------2---2---2---2---
                                                    pm    pm----------|

----

Next part is played 2 times
--------------------------------------------------------------------------
--------------------------------------------------------------------------
--------------------------------------------------------------------------
--------------16--14--------------------------16--15~---------------------
--17--16--14----------17--16--14--17--16--14------------------------------
--------------------------------------------------------------------------
  pm-------|          pm--------------------|

--------------------------------------------------------------------------
--------------------------------------------------------------------------
--------------14--12------------------------------------------------------
--15--14--12----------15--14--12--14~-------------------------------------
--------------------------------------------------------------------------
--------------------------------------------------------------------------
  pm-------|          pm-------|

--------------------------------------------------------------------------
--------------------------------------------------------------------------
--------------16--14--------------------------16--15~---------------------
--17--16--14----------17--16--14--17--16--14------------------------------
--------------------------------------------------------------------------
--------------------------------------------------------------------------
  pm-------|          pm-------------------|

-------------------------------------------------------14--17--18---------
--------------15--13-----------------------14--16--17---------------------
--15--14--12----------15--14--12---14--15---------------------------------
--------------------------------------------------------------------------
--------------------------------------------------------------------------
--------------------------------------------------------------------------

The beginning of the above riff (fret 17/string A) is played with the little finger.
The problem we have now, is that the riff ends (fret 18/string e) also with
the little finger. That means, that you have to play the beginning of the
second run with the ring finger.
At the end of run 2 the last note (fret 18/string e) is replaced with fret0/string E.

-----

This is the verse (I think???):

(The first note (fret 0/string E) of the following riff is the replacement of fret18)

     |here begins the verse
     |
--------------------------------------------------------------------------
--------------------------------------------------------------------------
--------------------------------------------------------------------------
-----------5-----5----------7--5-----5--------------------5-----5---------
-----------7-----7--------5----7-----7--------------------7-----7---------
--0--0--0-----0-----0--0----------0-----0--0--0--0--0--0-----0-----0--0---
  pm----|     pm    pm-|          pm    pm-------------|     pm    pm-|

--------------------------------------------------------------------------
--------------------------------------------------------------------------
------------0-------------------------------------------------------------
---------0--------4--5--5-------------------------------------------------
------3--------6--------7-------------------------------------------------
---5----------------------------------------------------------------------

----

This is the pre-corus
(guitar 2 is string G)
--------------------------------------------------------------------------
--------------------------------------------------------------------------
-----------------------------(2h4-2)----------------------------(1h2-1)---
--------4--------4---------4--4h5-4---------4--------4--------4--2h4-2----
--------------------------------------------------------------------------
--0--2-----0--2------0--2-------------0--2-----0--2-----0--2--------------
  pm-|     pm-|      pm-|             pm-|     pm-|     pm-|

--------------------------------------------------------------------------
--------------------------------------------------------------------------
-----------------------------(2h4-2)--------------------------------------
--------4--------4---------4--4h5-4---------4--------4--------------------
--------------------------------------------------------------------------
--0--2-----0--2------0--2-------------0--2-----0--2-----0--2--------------
  pm-|     pm-|      pm-|             pm-|     pm-|     pm-|

---

guitar 1                    | guitar 2
----------------------------|----------------------------------------------
--5--4--2-------------------|--8--7--5-------------------------------------
-----------5--4--2----------|-----------8--7--5----------------------------
--------------------5--4----|--------------------8--7----------------------
----------------------------|----------------------------------------------
----------------------------|----------------------------------------------

----
Chorus

---------11b12r11b12r11b12------------------------------------------------
--------------------------------------------------------------------------
------------------------------------s-------------------------------------
----------------------------------10-9---s--------------------------------
-----------------------------------8-7--7-6-------------------------------
--0--0----------------------0-0-0-------5-4------------------------------
  pm-|                      pm--|

---------11b12r11b12r11b12--------------8--------6------------------------
----------------------------------6-8-9----4-6-7--------------------------
--------------------------------------------------------------------------
--------------------------------------------------------------------------
--------------------------------------------------------------------------
--0--0----------------------0--0------------------------------------------
  pm-|                      pm-|

---------11b12r11b12r11b12---------------------------9b10r9b10------------
--------------------------------------------------------------------------
-------------------------------------s------------------------------------
-----------------------------------10-9---s-------------------------------
------------------------------------8-7--7-6------------------------------
--0--0------------------------0--0-------5-4---0--0-----------------------
  pm-|                        pm-|             pm-|

--------------------------------------------------------------------------
--------------------------------------------------------------------------
--------------------------------------------------------------------------
--------------------------------------------------------------------------
--7--6--8--8--------------------------------------------------------------
--5--4--6--6--------------------------------------------------------------

again chorus, then

---------------s----------------------------------------------------------
---s----------8--10--10--13-----------------------------------------------
--7--9--9-----7---9---9--12-----------------------------------------------
--7--9--9-----5---7---7--10-----------------------------------------------
--5--7--7-----------------------------------------------------------------
--------------------------------------------------------------------------
(Itґs wrong, but sounds similar)

again verse, then

--------------------------------------------------------------------------
------s----------s------------s-------------s-----------------------------
-----7-10-------9-12--------10-14---------13-12---------------------------
--------------------------------------------------------------------------
--5--------8-7--------10-8---------12-11----------------------------------
--------------------------------------------------------------------------

guitar1/guitar2
--------------------------------------------------------------------------
------s----------s--------------------------------------------------------
-----7-10-------9-12-----15/15--15/15--14/13--14/13--12/11-12/11--10/10---
--------------------------------------------------------------------------
--5--------8-7-------10---------------------------------------------------
--------------------------------------------------------------------------


Текст, аккорды и табулатура для песни "The Fun Palace", исполняет "Annihilator".
Используемые в песне аккорды можно найти в разделе Как брать аккорды. Аккорды для шестиструнной гитары. Другие песни можно найти на нашем сайте, воспользовавшись алфавитным указателем вверху страницы.


 
Ошибка в тексте? Выделите ошибку и нажмите Ctrl+Enter