#----------------------------------PLEASE NOTE---------------------------------#
#This file is the author's own work and represents their interpretation of the #
#song. You may only use this file for private study, scholarship, or research. #
#------------------------------------------------------------------------------#

================================================================================
         Title : Sixes and sevens
        Artist : Annihilator
         Album : Never Neverland
Transcribed by : By DimeBolt ([email protected])
[email protected]===============

Legend
------

 h  = hammer on
 p  = pull-off
 /  = slide up/down
 ~  = vibrato
N.H = Natural Harmonic
_3_ = Triplet
 tr = trill

Standard Tuning (E,A,D,G,B,E)

   Clean
1||-----------0-0-------|-----------0-0-------|-0-0-----------------|-0-0-------------||
2||--------11-----11----|--------11-----11----|-----11-----------11-|-----------------||
3||-----10-----------10-|-----10-----------10-|--------10-----10----|-----------------||
4||-8-8-----------------|-8-8-----------------|-----------8-8-------|-----------------||
5||---------------------|---------------------|---------------------|-----------------||
6||---------------------|---------------------|---------------------|-----------------||


1||-----------0-0-------|-----------0-0-------|---------5-5-----|---------0-0-----|
2||--------11-----11----|--------11-----11----|-------7-----7---|-------7-----7---|
3||-----10-----------10-|-----10-----------10-|-----6---------6-|-----6---------6-|
4||-8-8-----------------|-8-8-----------------|-4-4-------------|-4-4-------------|
5||---------------------|---------------------|-----------------|-----------------|
6||---------------------|---------------------|-----------------|-----------------|

                                      Ending
1||---------3-3-----|---------------||-----------0-0-------|-0-0--------------||
2||-------5-----5---|---------------||--------11-----11----|-----11-----------||
3||-----4---------4-|---------------||-----10-----------10-|--------10--------||
4||-2-2-------------|-2-------------||-8-8-----------------|-----------8------||
5||-----------------|---------------||---------------------|------------------||
6||-----------------|---------------||---------------------|------------------||

   Guitar 2 Distortion
1||--------|----|--------|----|--------|-----------------||
2||--------|----|--------|----|--------|-----------------||
3||--------|----|--------|----|--------|-----------------||
4||-3-3----|----|--------|----|--------|---6--5--3-------||
5||-1-1----|----|-4-4----|----|-2-2----|---4--3--1-4-----||
6||--------|----|-2-2----|----|-0-0----|-----------2-----||

   Intro Lick
1||--------------------|------------------|------------------||
2||--------------------|------------------|------------------||
3||---10---10----------|------------------|---7--10----------||
4||--8-------8---------|------------------|-7--8---8---------||
5||-7---------785--5---|--5-5--------55---|-5---7---785--5---||
6||--------------66-53-|-03-3-0365035--53-|------------66-53-||


1||------------------|------------------||------------------|-------------------|
2||------------------|------------------||------------------|-------------------|
3||------------------|------------------||------------2-----|-------------------|
4||------------------|------------------||-5h7-------4------|-5h7---------------|
5||------------------|-----3---6---3/---||----------5-------|------3-------3----|
6||-0-000-0000000-00-|-0-003-006-003/---||----000000--------|----003-0000003-00-|


1||------------------|------------------||-----------------||
2||------------------|------------------||-----------------||
3||------------2-----|------------------||-4444------------||
4||-5h7-------4------|-5h7--------------||-2222--32--------||
5||----------5-------|------3---6---3---||---------32--33--||
6||----000000--------|----003---6---3---||-------------11--||

   Verse
1||--------------------|-------------------|--------------------|-------------------||
2||--------------------|-------------------|--------------------|-------------------||
3||---------------N.H.-|-------------------|---------------N.H.-|-------------------||
4||--------10------5---|--------10---------|--------10------5---|--------10---------||
5||---7p5---8-----5-5--|---7p5---8----8--8-|---7p5---8-----5-5--|---7p5---8----8--8-||
6||-00---00---0000---5-|-00---00---0006--6-|-00---00---0000---5-|-00---00---650-006-||

   Variations of verse riff
1||-------------------------||-----------------||
2||-------------------------||-----------------||
3||-------------------------||-----------------||
4||--------10---------------||-875-------------||
5||---7p5---8---------------||----875-----8--8-||
6||-00---00---0006tr7--6tr7-||-------87650-006-||

   Chorus
1||------------------|-------------------|------------------|-----------------|
2||------------------|-------------------|------------------|-----------------|
3||------------------|-------------------|------------------|-----------------|
4||------------------|-------------------|------------------|-----------------|
5||-2-32-2222-32-222-|-2-32-222---5----3-|-2-32-2222-32-222-|-2-32-22266--55--|
6||-0-10-0000-10-000-|-0-10-0005h7--3h5--|-0-10-0000-10-000-|-0-10-00044--33--|


1||------------------|-------------------|------------------|-----------------||
2||------------------|-------------------|------------------|-----------------||
3||------------------|---------_3_--_3_--|------------------|-----------------||
4||------------------|-------------------|------------------|-----------------||
5||-2-32-2222-32-222-|-2-32-222---5----3-|-2-32-2222-32-222-|-2-32-22266--55--||
6||-0-10-0000-10-000-|-0-10-000567--345--|-0-10-0000-10-000-|-0-10-00044--33--||


1||-----------------||------------------||-----------------||
2||-----------------||------------------||-----------------||
3||-----------------||------------------||-----------------||
4||-----------------||------------------||-----------------||
5||------------8--8-||------------------||------------8--8-||
6||-0000000-650-006-||-7653-65435432432-||-00000000650-006-||


1||-----------------------|--------------------|-----------------------|-----------||
2||-----------------------|--------------------|-----------------------|-----------||
3||-----------------------|--------------------|-----------------------|-----------||
4||-----------------------|--------------7-----|-----------------------|-7---5-----||
5||----0-h1p0-----0-h1p0--|----0-h1p0----5---7-|----0-h1p0-----0-h1p0--|-5-7-3-5-7-||
6||-003------3-003------3-|-003------3-00--005-|-003------3-003------3-|---5---3-5-||

                                        Two guitars
1||------------------|----------------||--12--12-12--12-12-12----||
2||------------------|----------------||-8---9--8---9--8--6----6-||
3||------------------|----------------||-9--10--9--10--9--7--577-||
4||------------------|----------323---||---------------------79--||
5||-4-5---8-7----4-5-|------323-101---||-------------------------||
6||-2-3-006-5-00-2-3-|------101-------||-------------------------||

                                                             Solo backing
1||-----------------||-------------------------------------||-----------------|
2||-----------------||-------------------------------------||-----------------|
3||-----------------||-------------------------------------||------------4----|
4||-----------------||-9-9-10-10-9-9-10-10-9-9-7-7---------||----2-------4----|
5||-778877887755--5-||-7-7--8--8-7-7--8--8-7-7-5-5-----5---||----2----222-----|
6||-------------57--||-----------------------------5-7-----||-000-------------|

                       Ending
1||------------------||-----------------||---------------------|-------------------||
2||------------------||-----------------||---------------------|-------------------||
3||----2-------------||-----------------||---------------------|-------------------||
4||----2-------------||-----------------||----------98--------|----------98------||
5||-000-----00000000-||----1--------8-8-||-----98--76--8/9---|-----98--76--8-8-||
6||------------------||-6501--------6-6-||-00007600---006/700-|-00007600---006-6-||


1||----------------------||
2||----------------------||
3||-98----------789------||
4||---1087--7810-------8-||
5||-------10-------1011--||
6||----------------------||


Текст, аккорды и табулатура для песни "Sixes And Sevens", исполняет "Annihilator".
Используемые в песне аккорды можно найти в разделе Как брать аккорды. Аккорды для шестиструнной гитары. Другие песни можно найти на нашем сайте, воспользовавшись алфавитным указателем вверху страницы.


 
Ошибка в тексте? Выделите ошибку и нажмите Ctrl+Enter