E|----|--------3h2-3-----0-----------|
B|-0--|--0------------0-----------0--|
G|----|-----0------------------0-----|
D---2--------|
A------------|
E|----|--0---------------------------|

                                                              
--------5h3-5-----------------|--------5h3-5--------2--------|
--0---------------4-----------|--0---------------4-----------|
-----2---------4--------2--4------4--------2--4--|
-------------------------------------------------|
--2------------------2--------|--2---------------------------|
-------------------------------------------------|

                                                                            
--8--------7--------------7--|--8--8--8--8--7--8--|--12-------------10/-5--|
--------0-----0--------------5--------|----------10------------|
-----0-----------0-----0-----0--------|------11----------------|
--------------------------------------|--0-----------0---------|
-----------------------------|--0--------0---------------------|
--0-----------------0------------------------------|

                                                                     
--7--------------10--||---10---------8------------------8--|
--------0------------||----------10-----10-----|---------10------------|
-----7---------------||*------9-------------9--|------9----------9-----|
--5-----------6------||*-----------------------|--12---------10--------|
---------------------||---0--------------------------------|
-----------0-----------------------|

                                                                         
--8--------7---------------7--|--7-----------5h-3--2--------|
--------8-----8-----|---------8-----------5-----------0--0--|
-----9-----------9--|------9--------9-----|--------5--------------------|
--------------------|--10--------9--------|-----4-----------------------|
---------------------------------------2--------|
--0---------------------------------------------|

                                                            
--5--------3--------------10---||--2--------0--------0----||
--------0-----0----------------||--------0-----0-----0----||
-----0-----------0------------*||-----0-----------0--0----||
-----------------------6------*---||
----------------------------------||
--0-----------------0----------||--0-----------------0----||



Покроется небо пылинками звезд
И выгнутся ветви упруго
Тебя я услышу за тысячу верст
Мы эхо мы эхо 
Мы долгое эхо друг друга
Мы эхо мы эхо 
Мы долгое эхо друг друга

И мне до тебя где бы я ни была
Дотронуться сердцем не трудно
Опять нас любовь за собой позвала
Мы нежность мы нежность
Мы вечная нежность друг друга
Мы нежность мы нежность
Мы вечная нежность друг друга

И даже в краю наползающей тьмы
За гранью смертельного круга
Я знаю с тобой не расстанемся мы
Мы память мы память
Мы звездная память друг друга
Мы память мы память
Мы звездная память друг друга

Мы память мы память
Мы звездная память друг друга
Мы память мы память
Мы звездная память друг друга


Текст, аккорды и табулатура для песни "Эхо любви", исполняет "Анна Герман".
Используемые в песне аккорды можно найти в разделе Как брать аккорды. Аккорды для шестиструнной гитары. Другие песни можно найти на нашем сайте, воспользовавшись алфавитным указателем вверху страницы.


 
Ошибка в тексте? Выделите ошибку и нажмите Ctrl+Enter