E||---------------------------------------------|
B||----------------------0----------------------|
G||*------------0--0------------------0---------|
D||*-------2----------2-------2--2---------2----|
A||---0-----------------------------------------|
E||---------------------------------------------|

--------------------------------------------|
---------------------1----------------------|
------------0--0------------------0---------|
-------2----------2-------2--2---------2----|
--3-----------------------------------------|
--------------------------------------------|
                                             
--------------------------------------------|
---------------------0----------------------|
------------0--0------------------0---------|
-------2----------2-------2--2---------2----|
--2-----------------------------------------|
--------------------------------------------|

---------------------------------------------||
---------------------1-----------------------||
------------2--2------------------2---------*||
-------3----------3-------3--3---------3----*||
--3------------------------------------------||
---------------------------------------------||

            Сквозь прорези зрачков
            Лишь обои
            Сорок последних дней
            Я был почти готов
            Бросить все и
            Просто идти за ней
            Оплачены счета
            Руками грусти
            Изрезаны струями дождя
            Закончена игра
            Меня отпустит
            Тонкая колея

            Asus2 C
            Вот мой приз
            Em G F Em G F
            Незаметно опускается
            Asus2 C
            По веревкам вниз
            Em G F
            Бесконечно
            Em G F
            Время тянется

            И миллионы лет
            Не научат
            Мудрости дух секунд
            Они так долго ждали
            И получат
            Мой бесполезный бунт
            И все, что не успела
            Природа
            Я сделал за нее
            Разрезал по краям
            Небосвода
            Взял мир на острие

            Вот мой приз
            Незаметно опускается
            По веревкам вниз
            Бесконечно
            Время тянется
            Последний шаг
            Безопасен
            Бойся первого
            Моя душа
            Не согласна
            Но дело сделано


Текст, аккорды и табулатура для песни "Необратимость", исполняет "Animal Jazz".
Используемые в песне аккорды можно найти в разделе Как брать аккорды. Аккорды для шестиструнной гитары. Другие песни можно найти на нашем сайте, воспользовавшись алфавитным указателем вверху страницы.


 
Ошибка в тексте? Выделите ошибку и нажмите Ctrl+Enter