Riff_1 x4
Riff_3 x4

C# (Riff_2)
Стоп! Равнение направо!
            A
Во сколько начало?
             G#
И где будет шоу?
C# (Riff_2)
Я надену пиджак,
Скажу себе: “Good luck!”
А потом: “Let’s go!”

Девчонки скачут,
Рокеры фигачут,
Ты стоишь себе одна в уголке.
Они не понимают,
Сколько потеряют,
Если не достанутся тебе.
      A                  G#
А кому-то на высоком каблуке...

Riff_1

C#    Bm         C#
Я тебе подарю себя -
Bm           C#     Bm
Вот я стою, первый даром, 
    G#          F#
А второй - бесплатно.
Я сдаюсь в наем,
Возьми, как свое,
Но не забудь потом
Вернуть обратно!

Riff_3 x2

Я прочитал в ЖЖ,
Что не модно уже
Прокалывать бровь.
И вот у стойки стою,
Тихо пиво пью,
И ищу любовь.
Свет интимно красен,
В чилл-ауте Вася Васин,
ЖЫР, движуха, сигарета в руке.
А ты все одинока,
Все так же одинока,
И они не достанутся тебе.
А кому-то на высоком каблуке...

Riff_1

Припев.

Bm | F\A | F# | F\A

Bm          F\A        F#    F\A
Мимо плывут укуренные пацаны...
Их просто уносит, уносит и носит от стены до стены...
Нечем дышать, о, как же достал этот мир...
Где б раздобыть каблуки и эфир...каблуки и эфир...каблуки и эфир

Riff_1

Припев.



__Riff_1
e:-----------------|
B:-----------------|
G:---6-6-6-5-5-6---|
D:---4-4-4-3-3-6---|
A:-------------4---|
E:-----------------|

__Riff_2 (в куплете, когда C#)
e:---------------------------------|
B:---------------------------------|
G:---------------------------------|
D:------3/4----3/4----3/4----3/4---|
A:---4------4------4------4--------|
E:---------------------------------|

__Riff_3
e:---------------------------------|
B:---------------------------------|
G:---------------------------------|
D:------3/4----3/4----3/4--6-4-3---|
A:---4------4------4---------------|
E:---------------------------------|

_____C#__A___G#__Bm__F#__Am
e:---4---5---4---1---2---5---|
B:---6---5---4---2---2---5---|
G:---6---6---5---3---3---5---|
D:---6---7---6---3---4---7---|
A:---4---7---6---1---4---7---|
E:---x---5---4---x---2---5---|


Текст, аккорды и табулатура для песни "Каблуки", исполняет "Animal Jazz".
Используемые в песне аккорды можно найти в разделе Как брать аккорды. Аккорды для шестиструнной гитары. Другие песни можно найти на нашем сайте, воспользовавшись алфавитным указателем вверху страницы.


 
Ошибка в тексте? Выделите ошибку и нажмите Ctrl+Enter