ANGELWITCH
                   DR. PHIBES


Drum Intro

Riff 1
----------------------|---------------------------|-------|
----------------------|---------------------------|-------|
----------------------|---------------------------|-------|
-9--9x-------9--9x----|---9--9x----9--------------|-9--9x-|
-7--7x-------7--7x----|---7--7x----7-------7-6----|-7--7x-|
----------------------|-----------------00-----87-|-------|
                        Play this bit 4 times

Riff 2
-----------------------------------------|
-----------------------------------------|
-----------------------------------------|
-----------------------------------------|
-7--7--5h7-7p5-7--3p2h3--5p3h5--10-9-----|
-----------------------------------------|
Play this riff 5 times.

Riff 2b
-----------------------------------------|
-----------------------------------------|
-9--9--7h9-9p7-9--5p4h5--7p5h7--12-11----|
-----------------------------------------|
-----------------------------------------|
-----------------------------------------|
Play this riff with Riff 2, starting the
second time.


Riff 3
----------------|-----------------|---------|
----------------|-----------------|---------|
----------------|-----------------|---------|
-9--------4-5---|--9-7-------7-5--|-9-7-----|
-7--------2-3---|--7-5-------5-3--|-7-5-----|
----------------|-----------------|---------|
                 Play this bit
                     3 times

Play Riff 2


Fill 1
------------------|
------------------|
------------------|
-9----------------|
-7----------------|
------------------|
 Let ring


Riff 3
-------------------|
-------------------|
-------------------|
-7-5--------9-5-7--|
-5-3--------7-3-5--|
-------------------|
Repeat a lot

[email protected]


Текст, аккорды и табулатура для песни "Dr Phibes", исполняет "Angelwitch".
Используемые в песне аккорды можно найти в разделе Как брать аккорды. Аккорды для шестиструнной гитары. Другие песни можно найти на нашем сайте, воспользовавшись алфавитным указателем вверху страницы.


 
Ошибка в тексте? Выделите ошибку и нажмите Ctrl+Enter