mistakes and regrets
trail of dead

guitar x 2 bars

intro
g|--------|--------|--------|--------|
d|--------|--------|22-44-22|2-4-0-0-|
a|--------|--------|--------|-----2--|
e|3-------|5-------|--------|--------|	x 3

intro 2
g|--------|--------|--------|--------|
d|--------|--------|22-44-22|2-4-0-0-|
a|--------|--------|--------|-----2--|
e|2-------|2-------|--------|--------|  x 2

fill
g|--------|
d|22222222|
a|--------|
e|--------|  x 4

main
g|222-4-44|--------|
d|--------|4-44-222|
a|--------|--------|
e|--------|--------|  x 4

fill
g|--------|
d|22222222|
a|--------|
e|--------|  x 2

main x 4
fill x 2
main x 4
fill x 2

main 2
g|--------|22--22--|
d|3-333333|--33--33|
a|--------|--------|
e|--------|--------|  x 4

main x 4
fill x 2
main x 4
fill x 2

fill 2
g|--------|
d|2-------|
a|--------|
e|--------| let ring

intro x 3
intro 2 x 2
fill x 4
main x 8
fill 2 x 1

enjoy
i think most of its correct but it is hard to hear,
it plays nice with the guitar


Текст, аккорды и табулатура для песни "Mistakes And Regrets", исполняет "And You Will Know Us By The Trail Of Dead".
Используемые в песне аккорды можно найти в разделе Как брать аккорды. Аккорды для шестиструнной гитары. Другие песни можно найти на нашем сайте, воспользовавшись алфавитным указателем вверху страницы.


 
Ошибка в тексте? Выделите ошибку и нажмите Ctrl+Enter