Tuning-aaaeae


intro (note, lowest a is very low), also, a capo is not used on this song,
so on the album it must be tuned up a 1/2 step from what it says.


e|- -- -- -- -- -- --- -- -- 
a|-12-14-14-10-10-10-10-10-- 
e|- -0 -- -0 -- -0 --- 0- -- 
a|0 -- -- -- -0 -- --- -- -- 
a|- -- -- -- -- -- --- -- -- 
a|- -- -0 -- -- -- -0- -- -- 


         verse
e|-------------------------------------------------
a|-------------------------------------------------
e|-------------------------------------------------
a|-0---0-0-2-2-2-2/10-10-10-10---------------------
a|-0---0-0-2-2-2-2/10-10-10-10---------------------
a|-0---0-0-2-2-2-2/10-10-10-10---------------------
                              take one! take two!, etc.


         chorus
e|-------------------------------------------------
a|-------------------------------------------------
e|-------------------------------------------------
a|-7-7-7-7-5-5-5-5-12-12-12-12-10-10-10-10---------
a|-7-7-7-7-5-5-5-5-12-12-12-12-10-10-10-10---------
a|-7-7-7-7-5-5-5-5-12-12-12-12-10-10-10-10---------
                                tommy gun!


so it goes:
intro
verse
chorus
verse
chorus
intro
chorus
verse
chorus
noise


Текст, аккорды и табулатура для песни "A Perfect Teenhood", исполняет "And You Will Know Us By The Trail Of Dead".
Используемые в песне аккорды можно найти в разделе Как брать аккорды. Аккорды для шестиструнной гитары. Другие песни можно найти на нашем сайте, воспользовавшись алфавитным указателем вверху страницы.


 
Ошибка в тексте? Выделите ошибку и нажмите Ctrl+Enter