Ancient
             The Cainian Chronicle part II : Lilith's Embrace
                     From the album The Cainian Chronicle

Most riffs of this song, which I suddenly  decided to transcribe after
having seen the video on MTV's Into The Pit.


Main riff (the mighty, powerful riff)

Guitar 1
|-----------------------------------------------------------------------
|-----------------------------------------------------------------------
|-----------------------------------------------------------------------
|-2----2-/7-7----7-5-5----5-3-3----3-2-2----2-/7-7----7-/9-9----9----
|-0----0----0----0----0----0----3----3----0----0----0----0----0----0----
|-----------------------------------------------------------------------

----------|
----------|
----------|
9----9----|
7----7----|
----------|

Both Gtrs                                           play three times
|-----------------------------------------------------------------------
|-----------------------------------------------------------------------
|-----------------------------------------------------------------------
|-2----2-/7-7----7-5-5----5-3-3----3-2-2----2-/7-7----7-/9-9----9----
|-0----0----0----0----0----0----3----3----0----0----0----0----0----0----
|-----------------------------------------------------------------------

----------|
----------|
----------|
9----9----|
7----7----|
----------|


(pick fast)
                                                      (Gtr 2)
|-----------------------------------------------------------------------
|---------------------------------------------(1)-------(0)-------(2)---
|-----------------------------------------------------------------------
|-2---------1---------3-------------------------------------------------
|----------------------------------------------3---------2---------5----
|-----------------------------------------------------------------------


Then play the main riff twice

Lyrics:

Alone in the darkness I can hear
The sweetest voice
Whispering voice of surcease
And I rejoiced !

Then play this:

(pick fast)

|-----------------------------------------------------------------------
|-----------------------------------------------------------------------
|-----------------------------------------------------------------------
|-8---------9---------8---------9---------------------------------------
|-6---------6---------6---------6---------------------------------------
|-----------------------------------------------------------------------

Lyrics:

Who would dare speak to one so
Condemned as I ?
Do you know of my most wicked crime ?


Then:

(pick fast)

|-----------------------------------------------------------------------
|-----------------------------------------------------------------------
|-----------------------------------------------------------------------
|-4----6----7----9----7-6-------4----7----9----11-----------------------
|-----------------------------------------------------------------------
|-----------------------------------------------------------------------

Lyrics:

I'm known as Lilith, your father's first bride
Like you I'm cursed to dwell in the shadows of the night.

Play this twice:

(pick fast)

|-------------------------------|
|-------------------------------|
|-------------------------------|
|-8----9----8----9----8----6----|
|-6----6----6----7----7----7----|
|-------------------------------|

|-------------------------------|
|-------------------------------|
|-8---------9---------8----6----|
|-6---------6---------7----7----|
|-------------------------------|
|-------------------------------|

Lyrics:

How can one survive here in the dark
Groves forlorn ?
Without a sole companion or a friend of
Some form ?

But there are many companions in my
Infinite kingdom.
Through magic and sorcery I've found my 
Freedom.


Then the same riffs again with other lyrics I'll send to anyone
interested (just mail me). 
And there's the solo which I had not the time to tab.
Maybe later...


Tab explanation (guess you've already heard about that huh )

/ - slide up
 - slide down


Stay Brutal !!!

Questions, comments to [email protected]


Текст, аккорды и табулатура для песни "The Cainian Chronicle Part Ii Liliths Embrace", исполняет "Ancient".
Используемые в песне аккорды можно найти в разделе Как брать аккорды. Аккорды для шестиструнной гитары. Другие песни можно найти на нашем сайте, воспользовавшись алфавитным указателем вверху страницы.


 
Ошибка в тексте? Выделите ошибку и нажмите Ctrl+Enter