ANCIENT-CANTO III: AT THE INFERNAL PORTAL
Transcribed by The Pastor from France


RIFF1:
Play each note twice
|------------------------------------------------------------------|
|------------------------------------------------------------------|
|------------------------------------------------------------------|
|-3-3-3-3-3-3-3-3-7-7-7-7-3-3-3-3-6-6-6-6-8-8-8-8-10-10-10-8-8-6-6-|
|------------------------------------------------------------------|
|------------------------------------------------------------------|

|-------------------------------------------------|
|-------------------------------------------------|
|-------------------------------------------------|
|-10-10-10-10-10-10-10-10-14-14-14-14-10-10-10-10-|
|-------------------------------------------------|
|-------------------------------------------------|

|-----------------------------------------------|
|-----------------------------------------------|
|-----------------------------------------------|
|-10-10-10-12-12-12-13-13-12-12-10-10-8-8-10-10-|
|-----------------------------------------------|
|-----------------------------------------------|

|------------------------------------------------------------------|
|------------------------------------------------------------------|
|------------------------------------------------------------------|
|-3-3-3-3-3-3-3-3-7-7-7-7-3-3-3-3-6-6-6-6-8-8-8-8-10-10-10-8-8-6-6-|
|------------------------------------------------------------------|
|------------------------------------------------------------------|

|-------------------------------------------------|
|-------------------------------------------------|
|-------------------------------------------------|
|-10-10-10-10-10-10-10-10-14-14-14-14-10-10-10-10-|
|-------------------------------------------------|
|-------------------------------------------------|

|-------------------------------------|
|-------------------------------------|
|-------------------------------------|
|-10-10-10-10-12-12-12-12-13-13-13-13-|
|-------------------------------------|
|-------------------------------------|



RIFF2:
|--------------------------------------------------------------------|
|--------------------------------------------------------------------|
|--------------------------------------------------------------------|
|-6-6-6-6-6-6-6-6--5-5-5-5-5-5-5-5--2-2-2-2-2-2-2-2--4-4-4-4-4-4-4-4-|
|-6-6-6-6-6-6-6-6--5-5-5-5-5-5-5-5--2-2-2-2-2-2-2-2--4-4-4-4-4-4-4-4-|
|-4-4-4-4-4-4-4-4--3-3-3-3-3-3-3-3--0-0-0-0-0-0-0-0--2-2-2-2-2-2-2-2-|



RIFF3:
|-------------------------------------------------------------------|
|-------------------------------------------------------------------|
|-------------------------------------------------------------------|
|-6-6-6-6-6-6-6-6--5-5-5-5-5-5-5-5--7-7-7-7-7-7-7-7-7-7-7-7-7-7-7-7-|
|-6-6-6-6-6-6-6-6--5-5-5-5-5-5-5-5--7-7-7-7-7-7-7-7-7-7-7-7-7-7-7-7-|
|-4-4-4-4-4-4-4-4--3-3-3-3-3-3-3-3--5-5-5-5-5-5-5-5-5-5-5-5-5-5-5-5-|



RIFF4:
Play each note twice
|------------------------------------------------------------------|
|------------------------------------------------------------------|
|------------------------------------------------------------------|
|-3-3-2-2-3-3-5-5-3-3-2-2-3-3-5-5--1-1-0-0-1-1-3-3-6-6-6-6-5-5-5-5-|
|------------------------------------------------------------------|
|------------------------------------------------------------------|


=>>I can't transcribe the solo


RIFF5:
|--------------------------------------------------------------|
|--------------------------------------------------------------|
|-9-9-9-9-9-9-9-9--7-7-7-7-7-7-7-7--5-5-5-5-5-5-5-5--4-4-4-4-4-|
|-9-9-9-9-9-9-9-9--7-7-7-7-7-7-7-7--5-5-5-5-5-5-5-5--4-4-4-4-4-|
|-7-7-7-7-7-7-7-7--5-5-5-5-5-5-5-5--3-3-3-3-3-3-3-3--2-2-2-2-2-|
|--------------------------------------------------------------|



RIFF6:
Play each note twice
|--------------------------------------------------------------------|
|--------------------------------------------------------------------|
|--------------------------------------------------------------------|
|-6-6-6-6-9-9-9-9--4-4-4-4-7-7-7-7--2-2-2-2-5-5-5-5--6-6-6-6-9-8-6-8-|
|--------------------------------------------------------------------|
|--------------------------------------------------------------------|

|--------------------------------------------------------------------|
|--------------------------------------------------------------------|
|--------------------------------------------------------------------|
|-6-6-6-6-9-9-9-9--4-4-4-4-7-7-7-7--2-2-2-2-5-5-5-5--0/2-2-2-9-8-6-8-|
|--------------------------------------------------------------------|
|--------------------------------------------------------------------|



RIFF7:
|-----------------------------------------------------|
|-----------------------------------------------------|
|-----------------------------------------------------|
|-0-0-0-0-0-0-0-0--5-5-5-4-4-4--2-2-2-2-2-2-2-2-2-2-2-|
|-----------------------------------------------------|
|-----------------------------------------------------|


Any suggestions, modifications or comment:
e-mail me: [email protected]


Текст, аккорды и табулатура для песни "Canto Iii", исполняет "Ancient".
Используемые в песне аккорды можно найти в разделе Как брать аккорды. Аккорды для шестиструнной гитары. Другие песни можно найти на нашем сайте, воспользовавшись алфавитным указателем вверху страницы.


 
Ошибка в тексте? Выделите ошибку и нажмите Ctrl+Enter