Вступление
    
D|-5------4------5----5-------4-------5--5--5------4-------5-----5-------4----5--5--| 
A|-7------7------7----7-------7-------7--7--5------5-------5-----5-------5----5--5--|
E|---0-0----0-0----0----0-0-----0-0-----------0-0----0-0-----0----0-0-----0-0-------| Играть 2 раза

      Н5
D|-4------| 
A|-2------|
E|-х------|

1 куплет 
E5
Тоска напала на меня 
    D5       E5
Ну и что! Ну и что!
E5
Вчера мне было плохо, суета
    D5	     E5
Ну и что! Ну и что!
    H5       D5*
Все будет хорошо
  C5*            H5* Н5** Н5*
Я прошлое забыл давно

Припев
   Am           F
Почему вокруг шныряют люди? 
   G            E
Почему им всем не до меня?
Почему мне так дерьмово люди? 
Но все-таки придет она.
2 раза

2 куплет
Я всюду слышу, как и ты 
Сделай то, делай так
Повсюду учат, говорят 
Ты не прав, ты дурак
Да ты меня поймешь
Но время больше не вернешь

Припев
Почему вокруг шныряют люди? 
Почему им всем не до меня?
Почему мне так дерьмово люди? 
Но все-таки придет она.
2 раза

Am F G E
На-на наааа, на-на-на……(проигрыш)

Почему вокруг шныряют люди? 
Почему им всем не до меня?
Почему мне так дерьмово люди? 
Но все-таки придет Весна.

Am F G E
Она ааа, придёт весна (3 раза)
Am F G *
Она ааа, 

          *
G| ---------9------|       
D|-----7----7------| 
A|-----5-----------|
E|-----------------|

	D5*
e| ------0------------|       
H|-------x------------| 
G|-------7------------|
D|-------7------------|
A|-------5------------|
E|-------x------------|

       С5*
e| -------0-----------|       
H|--------x-----------| 
G|--------5-----------|
D|--------5-----------|
A|--------3-----------|
E|--------x-----------|

       Н5*
e| -------0-----------|       
H|--------x-----------| 
G|--------4-----------|
D|--------4-----------|
A|--------2-----------|
E|--------x-----------|

      Н5**
e| -------2-----------|       
H|--------x-----------| 
G|--------4-----------|
D|--------4-----------|
A|--------2-----------|
E|--------x-----------|


	
	
	        
Комментарий автора: Песня играется боем. Для большего эффекта в местах использования Е5, D5 бить по всем струнам, остальные заглушены левой рукой

Текст, аккорды и табулатура для песни "Тоска Напала", исполняет "Амвиш".
Используемые в песне аккорды можно найти в разделе Как брать аккорды. Аккорды для шестиструнной гитары. Другие песни можно найти на нашем сайте, воспользовавшись алфавитным указателем вверху страницы.


 
Ошибка в тексте? Выделите ошибку и нажмите Ctrl+Enter