*=tremolo picking   b=bend      ^=pull-off.hammer-on
 
 T=tapping           tr~=trill
 
          2x
 eb:-----------------------------------------------------------|
 Bb:`---------------------------------------------------------`|
 Gb:--5--3--------5--3--------------5--3--------5--3-----------|
 Db:--------6--5--------6--5--3--2--------6--5--------6--5--3--|
 Ab:`---------------------------------------------------------`|
 Db:-----------------------------------------------------------|
 
 
 eb:-----------------------------------------------------------|
 Bb:`---------------------------------------------------------`|
 Gb:-----------------------------------------------------------|
 Db:-----------------------------------------------------------|
 Ab:`---------------------------------------------------------`|
 Db:-----------------------------------------------------------|
 
 
 
 
 
 
 
          2x
 eb:-----------------------------------------------------------|
 Bb:`---------------------------------------------------------`|
 Gb:--5--3--------5--3--------------5--3--------5--3-----------|
 Db:--------6--5--------6--5--3--2--------6--5--------6--5--3--|
 Ab:`---------------------------------------------------------`|
 Db:-----------------------------------------------------------|
 
 
 eb:-----------------------------------------------------------|
 Bb:`---------------------------------------------------------`|
 Gb:-----------------------------------------------------------|
 Db:-----------------------------------------------------------|
 Ab:`-3--1--------3--1--------------3--1--------3--1----------`|
 Db:--------6--5--------6--5--3--2--------6--5--------6--5--3--|
 
 
 
 
 
 
 
          4x
 eb:-----------------------------------------------------------|
 Bb:`---------------------------------------------------------`|
 Gb:--5--3--------5--3--------------5--3--------5--3-----------|
 Db:--------6--5--------6--5--3--2--------6--5--------6--5--3--|
 Ab:`---------------------------------------------------------`|
 Db:-----------------------------------------------------------|
 
 eb:-----------------------------------------------------------|
 Bb:`---------------------------------------------------------`|
 Gb:-----------------------------------------------------------|
 Db:--3-----------3-----------3--3--3-----------3-----------3--|
 Ab:`-3-----------3-----------3--3--3-----------3-----------3-`|
 Db:--3-----------3-----------3--3--3-----------3-----------3--|
 
 
 
 
 
 
 
 
 eb:-----------------------------------------------------------|
 Bb:-----------------------------------------------------------|
 Gb:--5--3--------5--3--------------5--3--------5--3-----------|
 Db:--------6--5--------6--5--3--2--------6--5--------6--5--3--|
 Ab:-----------------------------------------------------------|
 Db:-----------------------------------------------------------|
 
 
 eb:-----------------------------------------------------------|
 Bb:-----------------------------------------------------------|
 Gb:-----------------------------------------------------------|
 Db:-----------------------------------------------------------|
 Ab:-----------------------------------------------------------|
 Db:-----------------------------------------------------------|
 
 
 
 
 
 
 
          2x
 eb:-----------------------------------------------------------|
 Bb:`---------------------------------------------------------`|
 Gb:--5--3--------5--3--------------5--3--------5--3-----------|
 Db:--------6--5--------6--5--3--2--------6--5--------6--5--3--|
 Ab:`---------------------------------------------------------`|
 Db:-----------------------------------------------------------|
 
 
 eb:-----------------------------------------------------------|
 Bb:`---------------------------------------------------------`|
 Gb:-----------------------------------------------------------|
 Db:--3-----------3-----------3--3--3-----------3-----------3--|
 Ab:`-3-----------3-----------3--3--3-----------3-----------3-`|
 Db:--3-----------3-----------3--3--3-----------3-----------3--|
 
 
 
 
 
 
 
    riff 1.                                      4x
 eb:-------------------------------------------------|
 Bb:`-----------------------------------------------`|
 Gb:-------------------------------------------------|
 Db:-------------------------------------------------|
 Ab:`-------2--3--2^3^2--------------2--3--2^3^2----`|
 Db:--5--5---------------5--3--5--5---------------5--|
 
 
 eb:-------------------------------------------------|
 Bb:`-----------------------------------------------`|
 Gb:-------------------------------------------------|
 Db:-------------------------------------------------|
 Ab:`-------2--3--2^3^2--------------2--3--2^3^2----`|
 Db:--5--5---------------5--3--5--5---------------5--|
 
 
 
 
 
 
 
    riff 2.                                      4x
 eb:-------------------------------------------------|
 Bb:`-----------------------------------------------`|
 Gb:--------4--5--4^5^4--------------4--5--4^5^4-----|
 Db:--5--5---------------5--3--5--5---------------5--|
 Ab:`-----------------------------------------------`|
 Db:-------------------------------------------------|
 
 
 eb:-------------------------------------------------|
 Bb:`-----------------------------------------------`|
 Gb:-------------------------------------------------|
 Db:-------------------------------------------------|
 Ab:`-------2--3--2^3^2--------------2--3--2^3^2----`|
 Db:--5--5---------------5--3--5--5---------------5--|
 
 
 
 
 
 
    riff 3.                                      4x
 eb:-------------------------------------------------|
 Bb:`-----------------------------------------------`|
 Gb:-------------------------------------------------|
 Db:--------2--3--2^3^2--------------2--3--2^3^2-----|
 Ab:`-3--3---------------3--1--3--3---------------3-`|
 Db:-------------------------------------------------|
 
 eb:-------------------------------------------------|
 Bb:`-----------------------------------------------`|
 Gb:-------------------------------------------------|
 Db:--------2--3--2^3^2--------------2--3--2^3^2-----|
 Ab:`-3--3---------------3--1--3--3---------------3-`|
 Db:-------------------------------------------------|
 
 
 
 
 
 
 
 
 eb:--------------------------------------------------------------------------|
 Bb:`-------------------------------------------------------------------------|
 Gb:--------------------------------------------------------------------------|
 Db:--5---5--8--7^8^7--5---------------------------------------------4-----4--|
 Ab:`----------------------5--------3------5----6--------5------6-------------|
 Db:--------------------------------------------------------------------------|
 
 
 eb:--------------------------------------------------------------------------|
 Bb:`-------------------------------------------------------------------------|
 Gb:--------------------------------------------------------------------------|
 Db:--5--------------------0--------------------1-----------------------------|
 Ab:`-5--------------------0--------------------1-----------------------------|
 Db:--5--5--5--5--5--5--5--0--0--0--0--0--0--0--1--1--1--1--1--1--1--4-4--4--4|
 
 
 
 
 
 
 
    4x
 eb:------------------|
 Bb:-----------------`|
 Gb:------------------|
 Db:---------------4--|
 Ab:---------5-------`|
 Db:------------------|
 
 
 eb:------------------|
 Bb:-----------------`|
 Gb:------------------|
 Db:------------------|
 Ab:-----------------`|
 Db:-4--4-4--4--4--4--|
 
 
 
 
 
 
 
    riff 4.                                                       4x
 eb:------------------------------------------------------------------|
 Bb:`----------------------------------------------------------------`|
 Gb:------------------------------------------------------------------|
 Db:--8--10--12--10^12--8--7--8--10--8^10--7--5--7--8--7^8--5--4--/7--|
 Ab:`----------------------------------------------------------------`|
 Db:------------------------------------------------------------------|
 
 
 eb:------------------------------------------------------------------|
 Bb:`----------------------------------------------------------------`|
 Gb:------------------------------------------------------------------|
 Db:--5--------------------0------------------1----------------0------|
 Ab:`-5--------------------0------------------1----------------0-----`|
 Db:--5--------------------0------------------1----------------0------|
 
 
 
 
 
 
 
    riff 5.               4x   w/riff 4. 2x
 eb:---------------------------------|
 Bb:`------------------------`|`--------------`--|
 Gb:--7--7--9--9--7--7--9--9---------|
 Db:-------------------------------|--5----------|
 Ab:`------------------------`|`--------------`--|
 Db:---------------------------------|
 
 
 eb:---------------------------------|
 Bb:`------------------------`|`--------------`--|
 Gb:--7-----5-----3-----2------------|
 Db:--7-----5-----3-----2----------|--5-------5--|
 Ab:`-5-----3-----1-----0----`|`--------------`|--5-------5--|
 Db:-------------------------------|--5-------5--|
 
 
 
 
 
 
 
 
    w/riff 2. 2x
 eb:-----------------|
 Bb:`---------------`|
 Gb:-----------------|
 Db:-----------------|
 Ab:`---------------`|
 Db:-----------------|
 
 
 eb:-----------------|
 Bb:`---------------`|
 Gb:-----------------|
 Db:-----------------|
 Ab:`---------------`|
 Db:-----------------|
 
 
 
 
 
 
 
 
 eb:--------------------------------------------------------------------------|
 Bb:--------------------------------------------------------------------------|
 Gb:*12--12--11^12^11----------12--11^12^11-----------------------------------|
 Db:-------------------13--12----------------13--12--10--12--10^12^10--9------|
 Ab:----------------------------------------------------------------------11--|
 Db:--------------------------------------------------------------------------|
 
    w/riff 1. 2x
 eb:--------------------------------------------------------------------------|
 Bb:--------------------------------------------------------------------------|
 Gb:--------------------------------------------------------------------------|
 Db:--------------------------------------------------------------------------|
 Ab:--------------------------------------------------------------------------|
 Db:--------------------------------------------------------------------------|
 
 
 
 
 
 
 
 
 eb:--------------------------------------------------------------------------|
 Bb:---*13--13--12^13^12----------13--12^13^12--------------------------------|
 Gb:----------------------13--12----------------13--12--10--12--10^12^10--9---|
 Db:------------------------------------------------------------------------11|
 Ab:10------------------------------------------------------------------------|
 Db:--------------------------------------------------------------------------|
 
       w/riff 3. 4x
 eb:--------------------------------------------------------------------------|
 Bb:--------------------------------------------------------------------------|
 Gb:--------------------------------------------------------------------------|
 Db:--------------------------------------------------------------------------|
 Ab:--------------------------------------------------------------------------|
 Db:--------------------------------------------------------------------------|
 
 
 
 
 
 
 
 eb:-----------------------------------------------------------------------13-|
 Bb:-------------------------------------------------13--12^13^12-------------|
 Gb:-------------9--9^10^9--------------9--9^10--10----------------13--12-----|
 Db:-10--10--11-------------11--10--10----------------------------------------|
 Ab:--------------------------------------------------------------------------|
 Db:--------------------------------------------------------------------------|
 
 
 eb:--------------------------------------------------------------------------|
 Bb:--------------------------------------------------------------------------|
 Gb:--------------------------------------------------------------------------|
 Db:--------------------------------------------------------------------------|
 Ab:--------------------------------------------------------------------------|
 Db:--------------------------------------------------------------------------|
 
 
 
 
 
 
 
   w/riff 5. 3x             3x
 eb:-12---------------------------|
 Bb:-----14--13--|`---------------------8----`|
 Gb:-------------|--7-----9-----10------------|
 Db:------------------------------|
 Ab:-------------|`--------------------------`|
 Db:------------------------------|
 
 
 eb:------------------------------|
 Bb:-------------|`--------------------------`|
 Gb:------------------------------|
 Db:------------------------------|
 Ab:-------------|`--------------------------`|
 Db:------------------------------|
 
 
 
 
 
 
 
     hidastuen
 eb:--------------------------------------------------------------------------|
 Bb:--------------------------------------------------------------------------|
 Gb:-7--7--5--5--3--3--2--2--0---0--------------------------------------------|
 Db:-----------------------------------4-----4-----1-----1-----0-----0-----5--|
 Ab:--------------------------------------------------------------------------|
 Db:--------------------------------------------------------------------------|
 
 
 eb:--------------------------------------------------------------------------|
 Bb:--------------------------------------------------------------------------|
 Gb:-7--7--5--5--3--3--2--2---------------------------------------------------|
 Db:-7--7--5--5--3--3--2--2--5---5--5--4--4--4--4--1--1--1--1--0--0--0--0--5--|
 Ab:-5--5--3--3--1--1--0--0--5---5--5--4--4--4--4--1--1--1--1--0--0--0--0--5--|
 Db:-------------------------5---5--5--4--4--4--4--1--1--1--1--0--0--0--0--5--|
 
 
 
 
 
 
 
    w/slide & vibra еаектеjС
 eb:---------------|
 Bb:---------------|
 Gb:---------------|
 Db:---------------|
 Ab:---------------|
 Db:---------------|
 
 
 eb:---------------|
 Bb:---------------|
 Gb:---------------|
 Db:---------------|
 Ab:---------------|
 Db:---------------|
 
 
 
 
 
 
 
 
 eb:--------------------------------------------------------------------------|
 Bb:`-------------------------------------------------------------------------|
 Gb:-------------------------------------7------------------------------------|
 Db:-7^8--7^8--10--7^8--7^8--10--10--10-----8--10--7--7--7--7^8^7-----7---7^8-|
 Ab:`--------------------------------------------------------------7----------|
 Db:--------------------------------------------------------------------------|
 
 
 eb:--------------------------------------------------------------------------|
 Bb:`-------------------------------------------------------------------------|
 Gb:--------------------------------------------------------------------------|
 Db:--5-------------------------------3----------------------7-------------5--|
 Ab:`-5-------------------------------3----------------------7-------------5--|
 Db:--5-------------------------------3----------------------7-------------5--|
 
 
 
 
 
 
 
          2x
 eb:----------------------------------------------------|
 Bb:---------------------------------------------------`|
 Gb:------------------------------------7--5^7^5--------|
 Db:-7^8--10--7^8--7^8--10--7--5--5--5------------7--5--|
 Ab:---------------------------------------------------`|
 Db:----------------------------------------------------|
 
 eb:----------------------------------------------------|
 Bb:---------------------------------------------------`|
 Gb:---------------------------5---5---5---5---5---5----|
 Db:------------------------7--5---5---5---5---5---5----|
 Ab:------------------------7--3---3---3---3---3---3---`|
 Db:------------------------7---------------------------|
 
 
 
 
 
 
 
           tr~~
 eb:--------------------------------------------------------------------------|
 Bb:--------------------------------------------------------------------------|
 Gb:--------------------------------------7-----------------------------------|
 Db:--7^8--7^8--10--7^8--7^8--10--10--10-----8--10--7--7--7--7^8^7-----7---7--|
 Ab:----------------------------------------------------------------7---------|
 Db:--------------------------------------------------------------------------|
 
 
 eb:--------------------------------------------------------------------------|
 Bb:--------------------------------------------------------------------------|
 Gb:--------------------------------------------------------------------------|
 Db:--5-------------------------------3----------------------7-------------8--|
 Ab:--5-------------------------------3----------------------7-------------8--|
 Db:--5-------------------------------3----------------------7-------------8--|
 
 
 
 
 
 
 
   ~~       T     tr~~~
 eb:--------------------------------------------------------------------------|
 Bb:---------------------------------------13---13----------------------13---|
 Gb:-----------------------------------10-b12--b12--10--12--10------0-b12--10|
 Db:(8)-----15^12^10--(12)-----10--12---------------------------12-----------|
 Ab:-------------------------------------------------------------------------|
 Db:-------------------------------------------------------------------------|
 
 
 eb:--------------------------------------------------------------------------|
 Bb:--------------------------------------------------------------------------|
 Gb:---------5-----------------------------------7---7--7--7---7--7--7---7--7-|
 Db:---------5-----------------------------------7---7--7--7---7--7--7---7--7-|
 Ab:---------3-----------------------------------5---5--5--5---5--5--5---5--5-|
 Db:--------------------------------------------------------------------------|
 
 
 
 
 
 
 
 
 eb:------------13^10---------13^10----------13^10---------13^10---------13^10|
 Bb:-------------------13^10---------13^10----------13^10---------13^10-------|
 Gb:12--12--------------------------------------------------------------------|
 Db:--------12----------------------------------------------------------------|
 Ab:--------------------------------------------------------------------------|
 Db:--------------------------------------------------------------------------|
 
 
  eb:--------------------------------------------------------------------------|
 Bb:--------------------------------------------------------------------------|
 Gb:7---7--7--7---7--7--7---7--7--7---7--7--7---7--7--7---7--7--7---7--7--7---|
 Db:7---7--7--7---7--7--7---7--7--7---7--7--7---7--7--7---7--7--7---7--7--7---|
 Ab:5---5--5--5---5--5--5---5--5--5---5--5--5---5--5--5---5--5--5---5--5--5---|
 Db:--------------------------------------------------------------------------|
 
 
 
 
 
 
 
 eb:---------13^10---------13^10--------b13-----13^10--13^10------------------|
 Bb:--13^10---------13^10---------13^10-----------------------13^10--13^10----|
 Gb:------------------------------------------------------------------------12|
 Db:--------------------------------------------------------------------------|
 Ab:--------------------------------------------------------------------------|
 Db:--------------------------------------------------------------------------|
 
 eb:--------------------------------------------------------------------------|
 Bb:--------------------------------------------------------------------------|
 Gb:7--7--7---7--7--7---7--7--7---7--7--7----------------------------*7-------|
 Db:7--7--7---7--7--7---7--7--7---7--7--7----------------------------*7-------|
 Ab:5--5--5---5--5--5---5--5--5---5--5--5----------------------------*5-------|
 Db:--------------------------------------------------------------------------|
 
 
 
 
 
 
 
 
 eb:-------------------------------------------------------------------------||
 Bb:-------------------------------------------------------------------------||
 Gb:^10--12^10---------------------------------------------------------------||
 Db:------------12^10--12^10-------------------------------------------------||
 Ab:--------------------------12^10--12^10--10^8--10^8--5--8--5--------------||
 Db:-------------------------------------------------------------------------||
 
 
 eb:-------------------------------------------------------------------------||
 Bb:-------------------------------------------------------------------------||
 Gb:------------------------(*7)-----------------------------------------7--||
 Db:------------------------(*7)-----------------------------------------7--||
 Ab:------------------------(*5)-----------------------------------------5--||
 Db:-------------------------------------------------------------------------||
 
 
 
 



Текст, аккорды и табулатура для песни "The Castaway", исполняет "Amorphis".
Используемые в песне аккорды можно найти в разделе Как брать аккорды. Аккорды для шестиструнной гитары. Другие песни можно найти на нашем сайте, воспользовавшись алфавитным указателем вверху страницы.


Слушать онлайн The Castaway


AmorphisThe Castaway на Яндекс.Музыке


 
Ошибка в тексте? Выделите ошибку и нажмите Ctrl+Enter