Riff 1
-----------------------------------------------------|
-----------------------------------------------------|
-----------------------------------------------------|
--------1-1------------------------------------------|
9-----------------9-------1-2-------1-1-------1-2----|
-----------------------------------------------------|

---------------------------------------------|
---------------------------------------------|
---------------------------------------------|
----9----------------------------------------|
|-------7---------------7-------1-0-------9-------1-0----|
---------------------------------------------|

-----------------------------------------------------------------|
-----------------------------------------------------------------|
-----------------------------------------------------------------|
----7------------------------------------------------------------|
|-------5---------------5-------8-----7-----8--------------------------------|
-----------------------------------------------------------------|

-----------------------------------------------------------------|
-----------------------------------------------------------------|
-----------------------------------------------------------------|
-------------6---------------------------------------------------|
-----4---------------4-------7-------6-------7---------9---------|
-----------------------------------------------------------------|

-------------------------------------------------|
-------------------------------------------------|
-------------------------------------------------|
|-----1-1----------------------------------------------------|
----9-------1-2-------1-1-------1-2---------9~~~-|
-------------------------------------------------|

-----------------------------------------------|
-----------------------------------------------|
------9----------------------------------------|
|---------7---------------7---------1-0-------9-------1-0--|
-----------------------------------------------|
-----------------------------------------------|

---------------------------------------------------|
---------------------------------------------------|
------------7--------------------------------------|
----5---------------5---------8-------7-------8----|
---------------------------------------------------|
---------------------------------------------------|

-----------------------------------------------------------------|
-----------------------------------------------------------------|
------5-------------------------------------------------4--------|
|---------3---------------3-------6-------5-------6---------2----------------|
-----------------------------------------------------------------|
-----------------------------------------------------------------|

-----------------------------------------------------------------|
-----------------------------------------------------------------|
----------------------------------9------------------------------|
--5-------4-----5---------7---------------7---------1-0----------|
-----------------------------------------------------------------|
-----------------------------------------------------------------|

-----------------|
-----------------|
-----------------|
|---9-------1-0---------7~~~-|
-----------------|
-----------------|

Riff 2
-----------------------------------------------------------------|
-----------------------------------------------------------------|
-----------------------------------------------------------------|
-----------------------------------------------------------------|
----------------7---7---7---7---7--------------------------------|
|-------5---5---5---5---5-----------------------7---7---7---7---7---8---8----|


-----------------------------------------------------------------|
-----------------------------------------------------------------|
-----------------------------------------------------------------|
-----------------------------------------------------------------|
----------------------------5---5---5---5---5--------------------|
|-----8---8---8-----3---3---3---3---3-----------------------5---5---5---5----|

----------------------------------------------------------------|
----------------------------------------------------------------|
----------------------------------------------------------------|
----------------------------------------------------------------|
---------------------------------------3---3---3---3---3--------|
|----5---6---6---6---6---6-----1---1---1---1---1-----------------------3----|

----------------------------------------------------------------|
----------------------------------------------------------------|
----------------------------------------------------------------|
----------------------------------------------------------------|
-------------------------------------------------2---2---2------|
|----3---3---3---3---4---4---4---4-------0---0---0---0---0------------------|


---------------------------------------|
---------------------------------------|
---------------------------------------|
---------------------------------------|
|--2---2-------------------------------------------|
2---2---2---2---2---3---3---3---3---3--|


Riff 3
-----------------------------------------------------------------|
-----------------------------------------------------------------|
-----------------------------------------------------------------|
-----------------------------------------------------------------|
2-----------2-----2-----3-------2-----2-----2-----2-----3--------|
0-----------0-----0-----1-------0-----0-----0-----0-----1--------|

----|
----|
----|
----|
|---2-----3-----|
|---0-----1-----|

-----------------------------------------------------------------|
-----------------------------------------------------------------|
-----------------------------------------------------------------|
----------------------------4-----------------4------------------|
---------2---------4---5-----------2-----5-----------------------|
-----------------------------------------------------------------|

----------------------------------------|
----------------------------------------|
----------------------------------------|
---4-----------------4------------------|
|-2----4---5---------2-----5------------------------|
----------------------------------------|

-----------------------------------------------------------------|
-----------------------------------------------------------------|
-----------------------------------------------------------------|
--------------------------------------6-----------------6--------|
--------------------4-----6-----7-----------4-----7--------------|
-----------------------------------------------------------------|

-----------------------------------------------------------------|
-----------------------------------------------------------------|
-----------------------------------------------------------------|
-----------------------------------------------------------------|
----------------------------------------2-------2---2---2---2----|
----------------------------------------0-------0---0---0---0----|

Riff 5

-----------------------------------------------------------------|
-----------------------------------------------------------------|
-----------------------------------------------------------------|
---2--h3-----0--h2-----------------------------------------------|
|----2---2-------------------------3---2h--3---2-----------------------------|
|----0---0-------------------------------------------------------------------|


Текст, аккорды и табулатура для песни "Forgotten Sunrise", исполняет "Amorphis".
Используемые в песне аккорды можно найти в разделе Как брать аккорды. Аккорды для шестиструнной гитары. Другие песни можно найти на нашем сайте, воспользовавшись алфавитным указателем вверху страницы.


Слушать онлайн Forgotten Sunrise


AmorphisForgotten Sunrise на Яндекс.Музыке


 
Ошибка в тексте? Выделите ошибку и нажмите Ctrl+Enter