--|
--|
--|
--|
|-4--4-4-4-4-|-7--7-7-7-7-|
|-2--2-2-2-2-|-5--5-5-5-5-|

Gtr 1
-------------------------------------------|
----------------------------------------10-|
9-11---------------9-|---12-11----------------9-9h11---|
|-9-11-12-9------------9---------|-9-------9-11-12---9-11----------|
-----10-12---10-12--------12---------------|
-------------------------------------------|

Gtr 2
--------------------------------------------|
--------------------------------------------|
--------------------------------------------|
--------------------------------------------|
|-9------9----9--5------5----5---|-9------9-----9---7------7----7---|
|-7------7----7--3------3----3---|-7------7-----7---5------5----5---|

Gtr 1 
-------------------------------------|
-------------------------------------|
9-11---------------9-----------------|
|-9-11-12-9------------9---------|---------9-9h11-9----------|
-----10-12---10-12---|-9-11-12----------1211----|
----------------------------------12-|

Gtr 2
--------------------------------------------|
--------------------------------------------|
--------------------------------------------|
--------------------------------------------|
|-9------9----9--5------5----5---|-4--4-4-4-4-7--7-7-7-7------------|
|-7------7----7--3------3----3---|-2--2-2-2-2-5--5-5-5-5------------|

Gtr 1
-------------------------------------------|
----------------------------------------10-|
9-11---------------9-|---12-11----------------9-9h11---|
|-9-11-12-9------------9---------|-9-------9-11-12---9-11----------|
-----10-12---10-12--------12---------------|
-------------------------------------------|

Gtr 2
--------------------------------------------|
--------------------------------------------|
--------------------------------------------|
--------------------------------------------|
|-9------9----9--5------5----5---|-9------9-----9---7------7----7---|
|-7------7----7--3------3----3---|-7------7-----7---5------5----5---|

Gtr 1
--------------------------------------|
--------------------------------------|
9-11---------------9-----------9-11-9-|
|-9-11-12-9------------9---------------9-11-------|
-----10-12---10-12---|-9-11-12-9-11-12------------|
--------------------------------------|

Gtr 2
--------------------------------------------|
--------------------------------------------|
--------------------------------------------|
--------------------------------------------|
|-9------9----9--5------5----5---|-4--4-4-4-4-7--7-7-7-7------------|
|-7------7----7--3------3----3---|-2--2-2-2-2-5--5-5-5-5------------|

Gtr 1
------------------------|
------------------------|
4-----------4-----------|
|-------4-5---5-4-------|-------4-5---5-4-------|
|-7-5-7-----------7-5-7-|-7-5-7-----------7-5---|
----------------------7-|

Gtr 1
-------------|
-------------|
4------------|
|-------4-5---5-4-------|---5-4 5----|
|-7-5-7-----------7-5-7-|-7----------|
-------------|



Gtr 1
------------------------|
------------------------|
4-----------4-----------|
|-------4-5---5-4-------|-------4-5---5-4-------|
|-7-5-7-----------7-5-7-|-7-5-7-----------7-5---|
----------------------7-|

Gtr 1
-------------|
-------------|
4------------|
|-------4-5---5-4-------|-5-4--------|
|-7-5-7-----------7-5-7-|-----5-7----|
-------------|

Gtr 1&2
--------------------------------------------|
--------------------------------------------|
--------------------------------------------|
|--------7--7-7--------9--9-9---------------------------|
|-9--9-9-5--5-5-9--9-9-7--7-7-9--9-9-9-9-9-4--4-4-4-4-4-|
|-7--7-7--------7--7-7--------7--7-7-7-7-7-2--2-2-2-2-2-|

Gtr 1
---------------|
---------------|
|---5-4------4-5/7-|-------4-----------|
|------5-----------|---4-5-------4-5/7-|
|-7------7-7-------|-7-------7-7-------|
---------------|

Gtr 1&2
---------------|
---------------|
-------|---------7---------|
|--------7-----------------|
|-9------5-------2-|-9---------------2-|
|-7--------------0-|-7---------------0-|


Текст, аккорды и табулатура для песни "Black Winter Day", исполняет "Amorphis".
Используемые в песне аккорды можно найти в разделе Как брать аккорды. Аккорды для шестиструнной гитары. Другие песни можно найти на нашем сайте, воспользовавшись алфавитным указателем вверху страницы.


Слушать онлайн Black Winter Day


AmorphisBlack Winter Day на Яндекс.Музыке


 
Ошибка в тексте? Выделите ошибку и нажмите Ctrl+Enter