-------------------------------------------------------------------------------
			    Flavor of the Week Acoustic - American Hi-Fi
-------------------------------------------------------------------------------
With Kapo on first fret or tune up a half step
All chords are tabbed as if there was no kapo
Two guitars written for one

Intro				  Verse
     Em    C                      G   D      Em    C
e|---0-----0----------------------0---0--2---0----0--------------------------|
B|---3-----3----------------------3---3--3---0----1--------------------------|
G|---0-----0----------------------0---2--2---0----0--------------------------|
D|---2-----2----------------------0---0--0---2----2--------------------------|
A|---2-----3----------------------2----------2----3--------------------------|
E|---0----------------------------3----------0-------------------------------|

Pre-chorus
     Em    G  D    Am     C                  D
e|--------0---2---------------------------------0----------------------------|
B|---0----3---3---1-------------1-------------3---3--------------------------|
G|---0----0---2---2-----------0---0---0-----2-------2------------------------|
D|---2----0---0---2---------2-------2-----0-----------0----------------------|
A|---2----2-------0---0-2-3--------------------------------------------------|
E|---0----3------------------------------------------------------------------|

Chorus                                   She just the flavor of the week.....
    G    D   Am  C     FILL               G           D        Em     C               
e|--0----0-------0-----------------------0-----------2----------0----0-------|
B|--3----3---1---1-----------------------3---5-3-0---3---5-3-0--0----1-------|
G|--0----2---2---0----------0------------0-----------2----------0----0-------|
D|--0----0---2---2------2h4--------------0-----------0----------2----2-------|
A|--2--------0---3----3------------------2----------------------2----3-------|
E|--3------------------------------------3----------------------0------------|

Lead 1
e|-----------6-------8-------8-----------------------------------------------|
B|--------9----9---9---9---9---9---9-----------------------------------------|
G|-------8-8-----8------8-------8--------------------------------------------|
D|---------------------------------------------------------------------------|
A|---------------------------------------------------------------------------|
E|---------------------------------------------------------------------------|

Solo

e|---11--11--11------8--6-4--3-----------------------------------------------|
B|-----11--11--11----9--8-6--4----------6---------------------4--6--9--11--9-|
G|-----------------------------5-5-/-6----6--5h6p5--3-1---/5-----------------|
D|---------------------------------------------------------------------------|
A|---------------------------------------------------------------------------|
E|---------------------------------------------------------------------------|

e|--------------------1-------4----------------------------------------------|
B|---4-6-4-6-4----------1-------4--------------------------------------------|
G|--------------5-3-5-------------3--1---------------------------------------|
D|---------------------------------------------------------------------------|
A|---------------------------------------------------------------------------|
E|---------------------------------------------------------------------------|


===============================================================================


Текст, аккорды и табулатура для песни "Flavor Of The Week Acoustic", исполняет "American Hi-fi".
Используемые в песне аккорды можно найти в разделе Как брать аккорды. Аккорды для шестиструнной гитары. Другие песни можно найти на нашем сайте, воспользовавшись алфавитным указателем вверху страницы.


 
Ошибка в тексте? Выделите ошибку и нажмите Ctrl+Enter