Song: Flavour of the weak
Artist: American Hi-Fi
Album: American Hi-Fi
Transcripter: x_myzery_x

v = vibrato
/ = schlide
^ (P.M.) = palm mute
b = bend
r = release


e|-----------------|-------------|
B|-----------------|-------------|
G|-----------------|-------------|
D|-----------------|-------------| (Repeat 2x)
A|-3/5-5--5-5--5-5-|-0-1-0-1-0-1-|
D|-3/5-5--5-5--5-5-|-0-1-0-1-0-1-|

|---------------------|---------------------|--------------------|--------------------|
|---------------------|---------------------|--------------------|--------------------|
|---------------------|---------------------|--------------------|--------------------|
|---------------------|---------------------|--------------------|--------------------|
|---------------------|---------------------|--------------------|-6-6--6-6--6-6--6-6-|
|-8-8--8-8--8-8--8-8--|-3-3--3-3--3-3--3-3--|-5-5--5-5--5-5--5-5-|--------------------|
[ ^ ^  ^ ^  ^ ^  ^ ^    ^ ^  ^ ^  ^ ^  ^ ^    ^ ^  ^ ^  ^ ^  ^ ^   ^ ^  ^ ^  ^ ^  ^ ^ ]
                          P.M.
  She paints her nails  And she don't         Know   he's got her  Best friend on the phone


|--------------------|---------------------|--------------------|--------------------|
|--------------------|---------------------|--------------------|--------------------|
|--------------------|---------------------|--------------------|--------------------|
|--------------------|---------------------|--------------------|-8-8-8-8---8-8-8-8--|
|--------------------|---------------------|--------------------|-6-6-6-6---6-6-6-6--|
|-8-8--8-8--8-8--8-8-|-3-3--3-3--3-3--3-3--|-5-5--5-5--5-5--5-5-|--------------------|
[ ^ ^  ^ ^  ^ ^  ^ ^   ^ ^  ^ ^  ^ ^  ^ ^    ^ ^  ^ ^  ^ ^  ^ ^ ]
                       P.M.
  She'll wash her      Hair, his dirty       Clothes, or          All he gives to her


|-------------------|-------------------|-------------------|---------------------------|
|-------------------|-------------------|-------------------|---------------------------|
|-------------------|-------------------|-------------------|---------------------8-7---|
|-------------------|-------------------|-------------------|-5------5------5---------8-|
|-5-5-5-5--5-5-5-5--|-8-8-8-8--8-8-8-8--|-3-3-3-3--3-3-3-3--|-3-3-3--3-3-3--3-3-3-------|
|-5-5-5-5--5-5-5-5--|-8-8-8-8--8-8-8-8--|-3-3-3-3--3-3-3-3--|---------------------------|
                                                               [^ ^    ^ ^    ^ ^]
                                                                      P.M.
  And he's got        Posters on the      Wall                Of all the girls he wished she was


|---------------|
|---------------|
|-----------8-7-|
|-8-10v---------|
|---------------|
|---------------|
  And he means everything to her


|--------------|--------------|------------------|------------------|
|--------------|--------------|------------------|------------------|
|--------------|--------------|------------------|------------------|
|--------------|--------------|-5-5-5-5--5-5-5-5-|-8-8-8-8--8-8-8-8-| (Repeat 2x)
|-8-8----------|-3-3----------|-3-3-3-3--3-3-3-3-|-6-6-6-6--6-6-6-6-|
|-8-8----------|-3-3----------|------------------|------------------|
  Her boyfriend  He don't know  Anything           About her needs
  Too stoned     Nintendo       I wish that        I could make her see


|-------------------|------------------------------|----------------------|----3-------------|
|-------------------|------------------------------|----------------------|------------------|
|-7-5------7-5------|------------------------------|-7-5------7-5---5b(7)-|-(7)--5b(7)r(5)-3-|
|-----8--------8-5v-|------------------------------|-----8--------8-------|------------------|
|-------8v----------|------------------------------|-------8v-------------|------------------|
|-------------------|------------------------------|----------------------|------------------|
                      She's just the flavor of the week


|--------------------|--------------------|--------------------|--------------------|
|--------------------|--------------------|--------------------|--------------------|
|--------------------|--------------------|--------------------|--------------------|
|--------------------|--------------------|--------------------|--------------------| (Rep. 2x)
|--------------------|--------------------|--------------------|-6-6--6-6--6-6--6-6-|
|-8-8--8-8--8-8--8-8-|-3-3--3-3--3-3--3-3-|-5-5--5-5--5-5--5-5-|--------------------|
[ ^ ^  ^ ^  ^ ^  ^ ^   ^ ^  ^ ^  ^ ^  ^ ^   ^ ^  ^ ^  ^ ^  ^ ^   ^ ^  ^ ^  ^ ^  ^ ^ ]
                       P.M.
  Its friday           Night    She's all   Alone                He's a million miles a-
  Way she's dressed to Kill      The TV's   On                   He's connected to the 


|-------------------|------------------|------------------|---------------------------|
|-------------------|------------------|------------------|---------------------------|
|-------------------|------------------|------------------|---------------------8-7---|
|-------------------|------------------|------------------|-5------5------5---------8-|
|-5-5-5-5--5-5-5-5--|-8-8-8-8--8-8-8-8-|-3-3-3-3--3-3-3-3-|-3-3-3--3-3-3--3-3-3-------|
|-5-5-5-5--5-5-5-5--|-8-8-8-8--8-8-8-8-|-3-3-3-3--3-3-3-3-|---------------------------|
                                                             [^ ^    ^ ^    ^ ^]
                                                                     P.M.
  Sound and she's got Pictures on the    Wall               Of all the girls he's loved before


|---------------|
|---------------|
|-----------8-7-|
|-8/10v---------|
|---------------|
|---------------|
  And she knows all his favorite songs


|--------------|--------------|-------------------|-------------------|
|--------------|--------------|-------------------|-------------------|
|--------------|--------------|-------------------|-------------------|
|--------------|--------------|-5-5-5-5--5-5-5-5--|--8-8-8-8--8-8-8-8-| (Repeat 2x)
|-8-8----------|-3-3----------|-3-3-3-3--3-3-3-3--|--6-6-6-6--6-6-6-6-|
|-8-8----------|-3-3----------|-------------------|-------------------|
  Her boyfriend  He don't know  Anything             About her needs
  Too stoned     Nintendo       I wish that          I could make her see



|--------------------|------------------------------------|
|--------------------|------------------------------------|
|--7-5------7-5------|------------------------------------|
|------8--------8-5v-|------------------------------------|
|--------8v----------|------------------------------------|
|--------------------|------------------------------------|
                       She's just the flavor of the week


Solo
----

|-----------------|
|-----------------|
|--7-5------7-5---|
|------8--------8-|
|--------8v-------|
|-----------------|

|---------------------------------------|
|---------------------------------------|
|5b(7)-6b(8)-8b(10)-10b(12)(12)(12)(12)-|
|---------------------------------------| (Repeat 3x)
|---------------------------------------|
|---------------------------------------|

|--------------------------------------------|
|--------------------------------------------|
|10b(12)-12b(14)-13b(15)-15b(17)(17)(17)(17)-|
|--------------------------------------------|
|--------------------------------------------|
|--------------------------------------------|

|13---------13---------13---------13----------13---------|
|---13b(15)-----13b(15)----13b(15)----13b(15)----13b(15)-|
|--------------------------------------------------------|
|--------------------------------------------------------|
|--------------------------------------------------------|
|--------------------------------------------------------|

|------------------------------------------|
|15-14-12----------------------------------|
|---------15-12-12b(14)(14)(14)r(12)sl10-8-|
|------------------------------------------|
|------------------------------------------|
|------------------------------------------|

|-------------------------------------------------|
|---------11-11--------11-11--------11---------11-|
|-10b(12)-------10b(12)------10b(12)----10b(12)---|
|-------------------------------------------------|
|-------------------------------------------------|
|-------------------------------------------------|

|-------------13-13-------13-13-------13--------13-|----------|
|11-13-13b(15)-----13b(15)-----13b(15)---13b(15)---|-8-6------|
|--------------------------------------------------|-----7----|
|--------------------------------------------------|-------8v-|
|--------------------------------------------------|----------|
|--------------------------------------------------|----------|

(end solo)


|-----------------|-----------------|-----------------|------------------|
|-----------------|-----------------|-----------------|------------------|
|-----------------|-----------------|-----------------|------------------|
|-----------------|-----------------|-5-5-------------|-8-8-8-8--8-8-8-8-| 
|-8-8-------------|-3-3-------------|-3-3-------------|-6-6-6-6--6-6-6-6-|
|-8-8-------------|-3-3-------------|-----------------|------------------|
  He's too stoned   He's too stoned   He's too stoned   He's too stoned


|-------------------|------------------|-------------------|-------------------|
|-------------------|------------------|-------------------|-------------------|
|-------------------|------------------|-------------------|-------------------|
|-------------------|------------------|-5-5-5-5--5-5-5-5--|--8-8-8-8--8-8-8-8-|
|-8-8-8-8--8-8-8-8--|-3-3-3-3--3-3-3-3-|-3-3-3-3--3-3-3-3--|--6-6-6-6--6-6-6-6-|
|-8-8-8-8--8-8-8-8--|-3-3-3-3--3-3-3-3-|-------------------|-------------------|
  Her boyfriend       He don't know      Anything             About her needs

|---------------------|------------------------|
|---------------------|------------------------|
|-7-5------7-5--------|----------------7-10-7--|
|------8--------8-5v--|----------8-10---------8| (Repeat 2x)
|--------8v-----------|------------------------|
|---------------------|------------------------|
  Too stoned; Nintendo  I wish I could make her see
                        She's just the flavor of the week

|-----------------|-----------------------------------------|
|-----------------|-----------------------------------------|
|--7-5------7-5---|-5b(7)-6b(8)--5b(7)-6b(8)-------7-8-7----|
|------8--------8-|---------------------------8-10--------8-|
|--------8v-------|-----------------------------------------|
|-----------------|-----------------------------------------|
                    Yeah, she's the flavor of the week

|----------------------|------------------|
|----------------------|------------------|
|--7-5------7-5--------|------------------|
|------8--------8-8/10-|------------------|
|--------8v------------|------------------|
|----------------------|------------------|
                        She makes me weak  

lyrics:

She paints her nails
And she don't know
He's got her best friend on the phone
She'll wash her her
His dirty clothes are all he gives to her
And he's got posters on the wall
Of all the girls he wish she was
And he means everything to her

Her boyfriend
He don't know
Anything about her
He's too stoned
Nintendo
I wish that i could make her see
She's just the flavor of the week

It's friday night
She's all alone
He's a million miles away
And she's dressed to kill
The TV's on
He's connected to the sound
And he's got pictures on the wall
Of all the girls he's loved before
And she knows all his favortie songs

Her boyfriend
He don't know
Anything about her
He's too stoned
Nintendo
I wish that i could make her see
She's just the flavor of the week

Her boyfriend
He don't know
Anything about her
He's too stoned
He's too sonted
He's too stoned
He's too stoned

Her boyfriend
He don't know
Anything about her, needs
Too stoned
Nintendo
I wish that i could make her see
She's just the flavor of the week
Yeah she's just the flavor of the week
She makes me weak


enjoy!!!


Текст, аккорды и табулатура для песни "Flavor Of The Week", исполняет "American Hi-fi".
Используемые в песне аккорды можно найти в разделе Как брать аккорды. Аккорды для шестиструнной гитары. Другие песни можно найти на нашем сайте, воспользовавшись алфавитным указателем вверху страницы.


 
Ошибка в тексте? Выделите ошибку и нажмите Ctrl+Enter