-------------------------------------------------------------------------------
        Just So You Know (Single Version) - American Head Charge
-------------------------------------------------------------------------------

Tabbed by:Jimmy Kane

Standard tuning

 /= slide up
 h= hammer on
pm= palm mute

intro

|-------------------------------------------------------------------------------------|
|------------2222-333-------------2222-333--------------2222-333-------------3333-222-|
|1/3-333-4-4----------1/3-333-4-4-----------1/3-333-4-4----------1/3-333-4-4----------|
|---------6--------------------6---------------------6--------------------6-----------|

verse 1

|---------------------------------------------------------------------------|
|---------------------------------------------------------------------------|
|1h3pm-x4-------------------------------------------------------------------|
|---------------------------------------------------------------------------|

|---------------------------------------------------------------------------|
|------------2222-333-------------2222-333--------------2222-333------------|
|1/3-333-4-4----------1/3-333-4-4-----------1/3-333-4-4---------------------|
|---------6--------------------6---------------------6----------------------|

|---------------------------------------------------------------------------|
|------------3333-2pm-------------------------------------------------------|
|1/3-333-4-4----------------------------------------------------------------|
|---------6-----------------------------------------------------------------|

chorus

|---------------------------------------------------------------------------|
|----------55555-0----------------------------------------------------------|
|-----------------4-3333-3333-1111-0000-x4----------------------------------|
|3333-3333------------------------------------------------------------------|

|---------------------------------------------------------------------------|
|------------2222-333-------------3333-222----------------------------------|
|1/3-333-4-4----------1/3-333-4-4-------------------------------------------|
|---------6--------------------6--------------------------------------------|

verse 2

|---------------------------------------------------------------------------|
|---------------------------------------------------------------------------|
|1h3pm-x4-------------------------------------------------------------------|
|---------------------------------------------------------------------------|

|---------------------------------------------------------------------------|
|------------2222-333-------------2222-333--------------2222-333------------|
|1/3-333-4-4----------1/3-333-4-4-----------1/3-333-4-4---------------------|
|---------6--------------------6---------------------6----------------------|

|---------------------------------------------------------------------------|
|------------3333-2pm-------------------------------------------------------|
|1/3-333-4-4----------------------------------------------------------------|
|---------6-----------------------------------------------------------------|

chorus 2

|---------------------------------------------------------------------------|
|----------55555-0----------------------------------------------------------|
|-----------------4-3333-3333-1111-0000-x4----------------------------------|
|3333-3333------------------------------------------------------------------|

bridge

|-------------------------------------------------------------------------------|
|-------------------------------------------------------------------------------|
|333333-4-4-333333-4-4-333333-4-4-333333-4-4-333333-4-4-333333-4-4-333333-4-4---|
|--------6----------6----------6----------6----------6----------6----------6--0-|

|--------------------------------------------------------------------------------|
|--------------------------------------------------------------------------------|
|3-3-3-4-4-3-3-3-4-4-3-3-3-4-4-3-3-3-4-4-3-3-3-4-4-3-3-3-4-4-3-3-3-4-4-3-3-3-4-4-|
|-------6---------6---------6---------6---------6---------6---------6---------6--|

|--------------------------------------------------------------------------------|
|--------------------------------------------------------------------------------|
|3-3-3-4-4-3-3-3-4-4-3-3-3-4-4-3-3-3-4-4-----------------------------------------|
|-------6---------6---------6---------6------------------------------------------|

chorus 3

|---------------------------------------------------------------------------|
|----------55555-0----------------------------------------------------------|
|-----------------4-3333-3333-1111-0000-x4----------------------------------|
|3333-3333------------------------------------------------------------------|

Please e-mail me with your comments:[email protected]
 
[email protected]===========================


Текст, аккорды и табулатура для песни "Just So You Know", исполняет "American Head Charge".
Используемые в песне аккорды можно найти в разделе Как брать аккорды. Аккорды для шестиструнной гитары. Другие песни можно найти на нашем сайте, воспользовавшись алфавитным указателем вверху страницы.


 
Ошибка в тексте? Выделите ошибку и нажмите Ctrl+Enter