-------------------------------------------------------------------------------
			     Racecars - Allister
-------------------------------------------------------------------------------

Tabbed by: Brian
Email: [email protected]

Tuning: Standard          (Listen to the recording for the strumming pattern)

Intro/Verse

Guitar 1
e|---------------------------------------| X9
B|---------------------------------------|
G|-------------------------7--------9----|
D|-------7--------9--------7--------9----|
A|-------7--------9---5-5--5---7-7--7----|
E|--5-5--5---7-7--7----------------------|
    . .      . .      . .      . .        

AFter Verse

e|---------------------------------------| 
B|---------------------------------------|
G|--------------------7---9--------------|
D|-------7--------9---7---9--------------|
A|-------7--------9---5---7--------------|
E|--5-5--5---7-7--7----------------------|


Pre-Chorus

Both Guitars
e|-------------------| X2
B|-------------------|
G|--7---9------------|
D|--7---9---7---4----|
A|--5---7---7---4----|
E|----------5---2----|



e|-------------------| 
B|-------------------|
G|-7---9-------------|
D|-7---9-Hold--------|
A|-5---7-------------|
E|-------------------|



Chorus

Both Guitar
e|------------------| X4
B|------------------|
G|-------7---9------|
D|---7---7---9------|
A|---7---5---7------|
E|---5--------------|


e|-----------------| 
B|------6----------|
G|--7---7----------|
D|--7---7----------|
A|--5---5----------|
E|-----------------|


Verse X9    (Guitar 1)


Guitar   (Comes in at 1:17)
e|-------5----5-----5-------5------5----------5------------------------------| 
B|-----5----5----5-------5-------5-----X3-----5-----Keep-Struming------------|
G|--2--------------------------2--------------2------------------------------|
D|---------------------------------------------------------------------------|
A|---------------------------------------------------------------------------|
E|---------------------------------------------------------------------------|



Pre-Chorus

Chorus

Bridge   

Guitar 1
e|------------------| X3
B|------------------|
G|-------7---9--9---|
D|---7---7---9--9---|
A|---7---5---7--7---|
E|---5--------------|

e|------------------| 
B|------------------|
G|-------7---9------|
D|-------7---9------|
A|-------5---7------|
E|------------------|
         .   .


Guitar 2 
e|---5-5--5-5--7--7h9p7---------5--4--2--4--0--|
B|------------------------X3-------------------|
G|---------------------------------------------|
D|---------------------------------------------|
A|---------------------------------------------|
E|---------------------------------------------|



Chorus


Guitar 2 (Comes in at 2:22)
e|-------------------------|
B|---9/-10-12--------------|
G|-------------------------|
D|---6/-7--9---------------|
A|-------------------------|
E|-------------------------|


Текст, аккорды и табулатура для песни "Racecars", исполняет "Allister".
Используемые в песне аккорды можно найти в разделе Как брать аккорды. Аккорды для шестиструнной гитары. Другие песни можно найти на нашем сайте, воспользовавшись алфавитным указателем вверху страницы.


 
Ошибка в тексте? Выделите ошибку и нажмите Ctrl+Enter