-------------------------------------------------------------------------------
			     Fraggle Rawk - Allister
-------------------------------------------------------------------------------
Tabbed by: Mike G

Tuning: EADGBE

INTRO: Guitar 1
e|---------------------------------------------------------------------------|
B|---------------------------------------------------------------------------|
G|-5-5-5-5-5-5-5-2-2-2-2-2-2-2-2-7-7-7-7-7-7-7-7-12-12-12-12-12-12-12-12-----|
D|-5-5-5-5-5-5-5-2-2-2-2-2-2-2-2-7-7-7-7-7-7-7-7-12-12-12-12-12-12-12-12-----|
A|-3-3-3-3-3-3-3-0-0-0-0-0-0-0-0-5-5-5-5-5-5-5-5--8--8--8--8--8--8--8--8-----|
E|---------------------------------------------------------------------------|

INTRO: Guitar 2
e|------------------------------------------------7--------------------------|
B|----------------6-6-6-6--6-6-6-----7-----7-8-10----------------------------|
G|------------------------------7-9---7-9------------------------------------|
D|-5-7-5-7-------------------------------------------------------------------|
A|---------7-5-3-------------------------------------------------------------|
E|---------------------------------------------------------------------------|

VERSE: Guitar 1 - 2x
e|---------------------------------------------------------------------------|
B|---------------------------------------------------------------------------|
G|-5-5--2--4-4-2-0--5-5-5-5-5--2--4-4-2-0--5---------------------------------|
D|-5-5--3--4-4-3-0--5-5-5-5-5--3--4-4-3-0--5---------------------------------|
A|-3-3--3--2-2-3----3-3-3-3-3--3--2-2-3----3---------------------------------|
E|---------------------------------------------------------------------------|

VERSE: Guitar 2 - 2x
e|---------------------------------------------------------------------------|
B|---------------------------------------------------------------------------|
G|-5-5--2--4-4-2----5-5-5-5-5--2--4-4-2----5---------------------------------|
D|-5-5--2--4-4-2-5--5-5-5-5-5--2--4-4-2-5--5---------------------------------|
A|-3-3--0--2-2-0-5--3-3-3-3-3--0--2-2-0-5--3---------------------------------|
E|---------------3----------------------3------------------------------------|

OUTRO: Guitars 1-2
e|---------------------------------------------------------------------------|
B|---------------------------------------------------------------------------|
G|-5-5-5-5-5-5-5-2-2-2-2-2-2-2-4-4-4-4-2-2-2-2-5-5-5-5-5-5-------------------|
D|-5-5-5-5-5-5-5-2-2-2-2-2-2-2-4-4-4-4-2-2-2-2-5-5-5-5-5-5-------------------|
A|-3-3-3-3-3-3-5-0-0-0-0-0-0-0-2-2-2-2-0-0-0-0-3-3-3-3-3-3-------------------|
E|---------------------------------------------------------------------------|

e|---------------------------------------------------------------------------|
B|---------------------------------------------------------------------------|
G|-4-4-2-2-5-5-5-5-4-4-2-2-5-------------------------------------------------|
D|-4-4-2-2-5-5-5-5-4-4-2-2-5-------------------------------------------------|
A|-2-2-0-0-3-3-3-3-2-2-0-0-3-------------------------------------------------|
E|---------------------------------------------------------------------------|

| /  slide up
|   slide down
| h  hammer-on
| p  pull-off
| ~  vibrato
| +  harmonic
| x  Mute note
===============================================================================


Текст, аккорды и табулатура для песни "Fraggle Rawk", исполняет "Allister".
Используемые в песне аккорды можно найти в разделе Как брать аккорды. Аккорды для шестиструнной гитары. Другие песни можно найти на нашем сайте, воспользовавшись алфавитным указателем вверху страницы.


 
Ошибка в тексте? Выделите ошибку и нажмите Ctrl+Enter