-------------------------------------------------------------------------------
			     Don't Think Twice - Allister
-------------------------------------------------------------------------------

Tabbed by: Brian
Email: [email protected]

Tuning: Standard         Figure Out Strumming Pattern

Intro

Guitar 1
e|---------------------| X2
B|---------------------|
G|-------6---7---9-----|
D|---7---6---7---9-----|
A|---7---4---5---7-----|
E|---5-----------------|


Guitar 2        First Ending     Second Ending     
e|--------- ------------------------------------|
B|--------- ------------------------------------|
G|--7p6---- -----------6---------7p6-7/9--------|
D|------7--X5----7-7h9---9----------------------|
A|--------- ------------------------------------|
E|--------- ------------------------------------|

Verse 

Guitar 1 & 2
e|-----------------------------------------------------------|
B|-----------------------------------------------------------|
G|-----6--7--9------6--7--9-xx-9------6--7--9------6--7--9---|
D|--7--6--7--9---7--6--7--9-xx-9---7--6--7--9---7--6--7--9---|
A|--7--4--5--7---7--4--5--7-xx-7---7--4--5--7---7--4--5--7---|
E|--5------------5-----------------5------------5------------|
pm  .  .  .  .   .  .  .           .  .  .  .   .  .


Pre-Chorus

Guitar 1 & 2
e|------------| X2
B|------------|
G|--6--7--9---|
D|--6--7--9---|
A|--4--5--7---|
E|------------|


Chorus

Guitar 1 & 2
e|--------------| X2
B|--------------|
G|-----6--9--7--|
D|--7--6--9--7--|
A|--7--4--7--5--|
E|--5-----------|


Chorus Cont.

Guitar 1 & 2
e|-------------------------------|
B|---------------------------6---|
G|--------6--6--7------9--7--7---|
D|-7--7---6--6--7---7--9--7--7---|
A|-7--7---4--4--5---7--7--5--5---|
E|-5--5-------------5------------|
pm .      .    


Intro

Verse

Pre-Chorus

Chorus


Guitar Solo

Guitar 1 plays the Intro but the chords are palm muted before playing accented


Guitar 2

e|-----------------------------------------------------------|
B|-------2/5-2/7-5-2--------2-----2----2-----2-5-5-5-5-5-7---|
G|-2-2-4--------------4-2-4---2h4--2h4---2h4-----------------|
D|-----------------------------------------------------------|
A|-----------------------------------------------------------|
E|-----------------------------------------------------------|

e|-------------------------5-5-5-4-5-4-5-5-5-4-5-7-7-7-------|
B|-----------------------------------------------------------|
G|-14-14-13-14-13-13-14-16-----------------------------------|
D|-----------------------------------------------------------|
A|-12-12-11-12-11-11-12-14-----------------------------------|
E|-----------------------------------------------------------|


Pre-Chours

Chorus



Thats it. If you want a punk song tabbed out email me at [email protected]


Текст, аккорды и табулатура для песни "Dont Think Twice", исполняет "Allister".
Используемые в песне аккорды можно найти в разделе Как брать аккорды. Аккорды для шестиструнной гитары. Другие песни можно найти на нашем сайте, воспользовавшись алфавитным указателем вверху страницы.


 
Ошибка в тексте? Выделите ошибку и нажмите Ctrl+Enter