Allister - Dont think Twice
By:Andrew Mcshan

Intro
(Guitar 1)
e|---------------------------------------------------------------------------|
B|----3-2--3-2---3-2-------------3-2---3-2---3-2---3-2---3-2---5-5-----------|
G|--------2----2-----2-2-4-6-4-2-----2-----2-----2-----2-----2---------------|
D|---------------------------------------------------------------------------|
A|---------------------------------------------------------------------------|
E|---------------------------------------------------------------------------|
(Guitar 2)
e|---------------------------------------------------------------------------|
B|---------------------------------------------------------------------------|
G|----------6----------7---------9-------------------------------------------|
D|-7--------6----------7---------9-------------------------------------------|
A|-7--------4----------5---------7-------------------------------------------|
E|-5-------------------------------------------------------------------------|

Verse
e|---------------------------------------------------------------------------|
B|---------------------------------------------------------------------------|
G|----------6----------7---------9-------------------------------------------|
D|-7--------6----------7---------9-------------------------------------------|
A|-7--------4----------5---------7-------------------------------------------|
E|-5-------------------------------------------------------------------------|

Pre Chorus
e|---------------------------------------------------------------------------|
B|---------------------------------------------------------------------------|
G|-------------7---------9---------------------------------------------------|
D|--7----------7---------9---------------------------------------------------|
A|--7----------5---------7---------------------------------------------------|
E|--5------------------------------------------------------------------------|

Chorus
e|---------------------------------------------------------------------------|
B|---------------------------------------------------------------------------|
G|------6------9----7---------6------9---7------9---4----7-------------------|
D|-7----6------9----7----7----6------9---7------9---4----7-------------------|
A|-7----4------7----5----7----4------7---5------7---2----5-------------------|
E|-5---------------------5---------------------------------------------------|

Bridge 
(Guitar 1)
e|---------------------------------------------------------------------------|
B|---------------------------------------------------------------------------|
G|----------6x6x6------7x7x7-----9x9x9---------------------------------------|
D|-7x7x7----6x6x6------7x7x7-----9x9x9---------------------------------------|
A|-7x7x7----4x4x4------5x5x5-----7x7x7---------------------------------------|
E|-5x5x5---------------------------------------------------------------------|
(Guitar 2)
e|---------------------------------------------------------------------------|
B|---------5-2-7-5-2--------2-----2----2-----2-5-5-5-5-5-7-------------------|
G|-2-2-4-6------------4-2-4---2-4--2-4---2-4---------------------------------|
D|---------------------------------------------------------------------------|
A|---------------------------------------------------------------------------|
E|---------------------------------------------------------------------------|

e|-------------------------5-5-5-4-5-4-5-5-5-4-5-7-7-7-----------------------|
B|---------------------------------------------------------------------------|
G|-14-14-13-14-13-13-14-16---------------------------------------------------|
D|---------------------------------------------------------------------------|
A|-12-12-11-12-11-11-12-14---------------------------------------------------|
E|---------------------------------------------------------------------------|


Текст, аккорды и табулатура для песни "Dont Think Twice", исполняет "Allister".
Используемые в песне аккорды можно найти в разделе Как брать аккорды. Аккорды для шестиструнной гитары. Другие песни можно найти на нашем сайте, воспользовавшись алфавитным указателем вверху страницы.


 
Ошибка в тексте? Выделите ошибку и нажмите Ctrl+Enter