Allister - Boysenberry
By:Andrew Mcshan([email protected])

Intro
(Guitar 1)
e|-------------------------------|
B|-------------------------------|
G|-----------7---9---------------|
D|---7-------7---9-----7---------|
A|---7-------5---7-----7---------|
E|---5-----------------5---------|
(Guitar 2)
e|-------------------------------|
B|---4/5-4/5-4/5/4-5/4-5/4-5-----|
G|-------------------------------|
D|-------------------------------|
A|-------------------------------|
E|-------------------------------|
Verse
e|-------------------------------|
B|-------------------------------|
G|-------7-----9-----------------|
D|--7----7-----9----7------x2----|
A|--7----5-----7----7------------|
E|--5---------------5------------|

e|-------------------------------|
B|-------------------------------|
G|---7------7-----7--------9-----|
D|---7---7--7--7--7---7----9-----|
A|---5---7--5--7--5---7----7-----|
E|-------5-----5------5----------|
Chorus
e|---------------------------------------------------------------------------|
B|---------------------------------------------------------------------------|
G|--------------7------------7-------------------------------7--7--7--9-9--9-|
D|----7----4----7-----7--4---7-----7--7--7--7---4--4--4--4---7--7--7--9-9--9-|
A|----7----4----5-----7--4---5-----7--7--7--7---4--4--4--4---5--5--5--7-7--7-|
E|----5----2----------5--2---------5--5--5--5---2--2--2--2-------------------|
                                   Pm................................
Bridge
e|-------------------------------------|
B|-------------------------------------|
G|------------------7-----7------------|
D|-----7-----4------7-----7------------|
A|-----7-----4------5-----5----x4------|
E|-----5-----2-------------------------|
Pm...........................


Текст, аккорды и табулатура для песни "Boysenberry", исполняет "Allister".
Используемые в песне аккорды можно найти в разделе Как брать аккорды. Аккорды для шестиструнной гитары. Другие песни можно найти на нашем сайте, воспользовавшись алфавитным указателем вверху страницы.


 
Ошибка в тексте? Выделите ошибку и нажмите Ctrl+Enter