This is the best tab i could find, the others seemed messed up,
listen to the song and u will realize that

Intro
E-----------------------------------------------------
B-----------------------------------------------------
G-----------------------------------------------------
D-------------------------------5-5--5----------------	x2
A---5-5—5----5-5—5----0-0-0-----3-3—3-----------------
E---3-3—3----2-2—2----2-2-2---------------------------

E------------------------------------------------------------
B------------------------------------------------------------
G------------------------------------------------------------
D----------------------00000000--55555555--------------------	x2
A--55555555--55555555--22222222--33333333--------------------
E--33333333--22222222----------------------------------------

Verse
E---3-3--3---3-3--3---3-3--3---3-3--3------------------------------
B---3-3--3---3-3--3---3-3--3---3-3--3------------------------------
G---0-0--0---0-0--0---0-0--0---0-0--0------------------------------
D---0-0--0---0-0--0---2-2--2---2-2--2-----------------------5------
A---2-2--2---2-2--2---2-2--2---3-3--3----------5------0-x8—-3-x8---
E---3-3--3---3-3--3----------------------------3-x16--2------------
	                                P.M.
Pre-Chorus
E---3---3---	
B---3---3---	
G---0---0---	
D---0---2---	
A---2---3---	
E---3-------

Chorus
E---3-------3-------3-------3----------
B---3-------3-------3-------3----------
G---0-------2-------0-------0----------
D---0--x8---0--x8---2--x8---2--x8------
A---2-------0-------2-------3----------
E---3-------2--------------------------
or you can just do the part of the intro wutever suits your needs

Verse x1
Pre-Chorus x1
Chorus x1

Solo
E------10-8-7-8-15--14-12---------15------15------15------15----14-15-----------
B—3/-----------8--12-------12-13--15-13-12--12-13---------15-12-15-13-----------
G---------------------------------------------------14-12----12-----------------
D-------------------------------------------------------------------------------
A-------------------------------------------------------------------------------
E-------------------------------------------------------------------------------
There are different strums for each note so these are just the notes

E--------------3--3--------3--------------
B--------------3--3--------3--------------
G--------------0--0--------0--------------
D--2-2--4-4----0--2--------2--------------
A--2-2--4-4----2--3---x2---3--------------repeated a bunch of times
E--0-0--2-2----3--------------------------


Текст, аккорды и табулатура для песни "Swing Swing", исполняет "All-american Rejects".
Используемые в песне аккорды можно найти в разделе Как брать аккорды. Аккорды для шестиструнной гитары. Другие песни можно найти на нашем сайте, воспользовавшись алфавитным указателем вверху страницы.


 
Ошибка в тексте? Выделите ошибку и нажмите Ctrl+Enter